Rage Against The Machine - Bulls On Parade Chords & Tabs

 

Bulls On Parade Chords & Tabs

Rage Against The Machine Chords & Tabs

Version: 3 Type: Tab 2 ratings
1 star 2 stars 3 stars 4 stars 5 stars
comments

Bulls On Parade Tab

Song= Bulls On Parade
Band= Rage Against The Machine
Album= The Battle For Los Angeles
Tabber= Dumpy The Destroyer

Alright guitar freaks, here's another favourite of mine. I'm 100% sure of 
this one because I've checked the song, other tabs, and live videos for
the real way to play this song, and I've got it down pact.

x = muted
\ = slide
p = pull of
h = hammer on
^ = bend
~ = let ring
PM = palm mute wherever indicated
* = tremolo pick
% = depress wah pedal (toe down)

INTRO     

e|------------------------------------------------------------------------|
b|----------------------------------------------------------------------o-|
g|------------------------------------------------------------------------|
D|-3----3-3--3-3----3----3-3--3-3-----------------------------------------|x4
A|---3-----3----3-----3-----3----3--------------------------------------o-|
D|---3-----3----3-----3-----3----3----------------------------------------|


PREVERSE (rocking wah pedal back and forth)

e|------------------------------------------------------------------------|
b|----------------------------------------------------------------------o-|
g|------------------------------------------------------------------------|
D|-3---3---x-x-3---3---x-x-x-x-x-x-3---3---x-x-3---3---x-x-x-x-x-x--------|x4
A|-3---3---x-x-3---3---x-x-x-x-x-x-3---3---x-x-3---3---x-x-x-x-x-x------o-|
D|-3---3---x-x-3---3---x-x-x-x-x-x-3---3---x-x-3---3---x-x-x-x-x-x--------|
   %   %   %   %   %   %   %   %   %   %   %   %   %   %   %   % 


VERSE 1 (keep wah pedal on toe down position to achieve hollow tone)

e|------------------------------------------------------------------------|
b|----------------------------------------------------------------------o-|
g|------------------------------------------------------------------------|
D|------------------------------------------------------------------------|x4
A|----------------------------------------------------------------------o-|
D|-1--3~---6~--8-6-1-3~--3-1~-1-2~----------------------------------------|


CHORUS 1

e|------------------------------------------------------------------------|
b|----------------------------------------------------------------------o-|
g|------------------------------------------------------------------------|
D|-4-3-3---3---1-3-3---3---4-3-3---3---1-3-3-3-1-3------------------------|x4
A|-4-3-3---3---1-3-3---3---4-3-3---3---1-3-3-3-1-3----------------------o-|
D|-4-3-3---3---1-3-3---3---4-3-3---3---1-3-3-3-1-3------------------------|


VERSE 2 (keep wah pedal on toe down position to achieve hollow tone)
[ Tab from: http://www.guitartabs.cc/tabs/r/rage_against_the_machine/bulls_on_parade_tab_ver_3.html ]
e|------------------------------------------------------------------------|
b|----------------------------------------------------------------------o-|
g|------------------------------------------------------------------------|
D|------------------------------------------------------------------------|x4
A|----------------------------------------------------------------------o-|
D|-1--3~---6~--8-6-1-3~--3-1~-1-2~----------------------------------------|


CHORUS 2

e|------------------------------------------------------------------------|
b|----------------------------------------------------------------------o-|
g|------------------------------------------------------------------------|
D|-4-3-3---3---1-3-3---3---4-3-3---3---1-3-3-3-1-3------------------------|x4
A|-4-3-3---3---1-3-3---3---4-3-3---3---1-3-3-3-1-3----------------------o-|
D|-4-3-3---3---1-3-3---3---4-3-3---3---1-3-3-3-1-3------------------------|


BRIDGE

e|------------------------------------------------------------------------|
b|----------------------------------------------------------------------o-|
g|------------------------------------------------------------------------|
D|-8---8---x-x-8---8---x-x-x-x-x-x-8---8---x-x-8---8---x-x-x-x-x-x--------|x2
A|-8---8---x-x-8---8---x-x-x-x-x-x-8---8---x-x-8---8---x-x-x-x-x-x------o-|
D|-8---8---x-x-8---8---x-x-x-x-x-x-8---8---x-x-8---8---x-x-x-x-x-x--------|
   %   %   %   %   %   %   %   %   %   %   %   %   %   %   %   % 


SOLO

In this song Tom Morello (the guitarist) uses his fret hand to rub against 
his strings while flicking the pickup switch with his pick hand to create
a record scratching sound.  If you want to attempt this you gotta play with
your distortion and probably turn the gain up quite a bit, then try to slide
along with the pattern leaving the switch in the bridge position during 
longer "scratches".


BRIDGE (rocking wah pedal back and forth)

e|------------------------------------------------------------------------|
b|----------------------------------------------------------------------o-|
g|------------------------------------------------------------------------|
D|-3---3---x-x-3---3---x-x-x-x-x-x-3---3---x-x-3---3---x-x-x-x-x-x--------|x8
A|-3---3---x-x-3---3---x-x-x-x-x-x-3---3---x-x-3---3---x-x-x-x-x-x------o-|
D|-3---3---x-x-3---3---x-x-x-x-x-x-3---3---x-x-3---3---x-x-x-x-x-x--------|
   %   %   %   %   %   %   %   %   %   %   %   %   %   %   %   % 


OUTRO (ritardando on the last bar)

e|------------------------------------------------------------------------|
b|----------------------------------------------------------------------o-|
g|------------------------------------------------------------------------|
D|-3----3-3--3-3----3----3-3--3-3-----------------------------------------|x6
A|---3-----3----3-----3-----3----3--------------------------------------o-|
D|---3-----3----3-----3-----3----3----------------------------------------|

                         ∂џмрч †нє ∂єς†ґΩчєг
Comments