Rage Against The Machine - Born Of A Broken Man Chords & Tabs

 

Born Of A Broken Man Chords & Tabs

Rage Against The Machine Chords & Tabs

Version: 8 Type: Tab 0 ratings
1 star 2 stars 3 stars 4 stars 5 stars
comments

Born Of A Broken Man Tab

   
*----*---*-----------------------------------------------------*---*--*
*-----***----Rage Against The Machine - Born of a Broken Man----***---*
*----*---*-----------------------------------------------------*---*--*
                    Tabbed by: Shortys99887
                    Shortys99887@hotmail.com

Tuning: Dropped D [DADGBe]

Intro: Played Twice
e|-----------------------------------------------------------------------|
B|-----------------------------------------------------------------------|
G|-14-14-14-14-14-14-14-14-13-13-13-13-13-16-16-5-5-5-5-5-5-5-5-16-14-14-|
D|-----------------------------------------------------------------------|
A|-----------------------------------------------------------------------|
D|-----------------------------------------------------------------------|

Riff 1: Played twice
e|-----------------------------------------------------------------------|
B|-----------------------------------------------------------------------|
G|-----------------------------------------------------------------------|
D|------5b----------------------xxxxx------------------------------------|
A|------------------------------xxxxx------------------------------------|
D|--0---------3--0--7--0--3--0--xxxxx-3--0--7--0--3--0-------------------|

Then...
e|-----------------------------------------------------------------------|
B|-----------------------------------------------------------------------|
G|--------------------------------------------222222bend-----------------|
D|------5b----------------------xxxxx------------------------------------|
A|------------------------------xxxxx------------------------------------|
D|--0---------3--0--7--0--3--0--xxxxx-3--0-------------------------------|

Riff 1: Played once
e|-----------------------------------------------------------------------|
B|-----------------------------------------------------------------------|
G|-----------------------------------------------------------------------|
D|------5b----------------------xxxxx------------------------------------|
A|------------------------------xxxxx------------------------------------|
D|--0---------3--0--7--0--3--0--xxxxx-3--0--7--0--3--0-------------------|

Verse: Played twice
e|-----------------------------------------------------------------------|
B|-----------------------------------------------------------------------|
G|-14-14-14-14-14-14-14-14-13-13-13-13-13-16-16-5-5-5-5-5-5-5-5-16-14-14-|
D|-----------------------------------------------------------------------|
A|-----------------------------------------------------------------------|
D|-----------------------------------------------------------------------|

Chorus: Played twice
e|-----------------------------------------------------------------------|
B|-----------------------------------------------------------------------|
G|-----------------------------------------------------------------------|
D|------5b----------------------xxxxx------------------------------------|
A|------------------------------xxxxx------------------------------------|
D|--0---------3--0--7--0--3--0--xxxxx-3--0--7--0--3--0-------------------|

Then...
e|-----------------------------------------------------------------------|
B|-----------------------------------------------------------------------|
G|--------------------------------------------222222bend-----------------|
D|------5b----------------------xxxxx------------------------------------|
A|------------------------------xxxxx------------------------------------|
D|--0---------3--0--7--0--3--0--xxxxx-3--0-------------------------------|

Chorus: Played once
e|-----------------------------------------------------------------------|
B|-----------------------------------------------------------------------|
G|-----------------------------------------------------------------------|
D|------5b----------------------xxxxx------------------------------------|
A|------------------------------xxxxx------------------------------------|
D|--0---------3--0--7--0--3--0--xxxxx-3--0--7--0--3--0-------------------|

Verse: Played three times..
e|-----------------------------------------------------------------------|
B|-----------------------------------------------------------------------|
G|-14-14-14-14-14-14-14-14-13-13-13-13-13-16-16 5-5-5-5-5-5-5-5-16-14-14-|
D|-----------------------------------------------------------------------|
A|-----------------------------------------------------------------------|
D|-----------------------------------------------------------------------|

Chorus: Played twice
e|-----------------------------------------------------------------------|
B|-----------------------------------------------------------------------|
G|-----------------------------------------------------------------------|
D|------5b----------------------xxxxx------------------------------------|
A|------------------------------xxxxx------------------------------------|
D|--0---------3--0--7--0--3--0--xxxxx-3--0--7--0--3--0-------------------|

Then...
e|-----------------------------------------------------------------------|
B|-----------------------------------------------------------------------|
G|--------------------------------------------222222bend-----------------|
D|------5b----------------------xxxxx------------------------------------|
A|------------------------------xxxxx------------------------------------|
D|--0---------3--0--7--0--3--0--xxxxx-3--0-------------------------------|
[ Tab from: http://www.guitartabs.cc/tabs/r/rage_against_the_machine/born_of_a_broken_man_tab_ver_8.html ]
Chorus: Played once
e|-----------------------------------------------------------------------|
B|-----------------------------------------------------------------------|
G|-----------------------------------------------------------------------|
D|------5b----------------------xxxxx------------------------------------|
A|------------------------------xxxxx------------------------------------|
D|--0---------3--0--7--0--3--0--xxxxx-3--0--7--0--3--0-------------------|

Then this: Played three times
e|-----------------------------------------------------------------------|
B|-----------------------------------------------------------------------|
G|----------------5~--7~-------------------------------------------------|
D|-----------------------------------------------------------------------|
A|-----------------------------------------------------------------------|
D|--0-0-0-0-0-0-0--------------------------------------------------------|

then this: Played once
e|-----------------------------------------------------------------------|
B|-----------------------------------------------------------------------|
G|-----------------------------------------------------------------------|
D|------5b----------------------xxxxx------------------------------------|
A|------------------------------xxxxx------------------------------------|
D|--0---------3--0--7--0--3--0--xxxxx-3--0--7--0--3--0-------------------|

Verse: Played twice
e|-----------------------------------------------------------------------|
B|-----------------------------------------------------------------------|
G|-14-14-14-14-14-14-14-14-13-13-13-13-13-16-16-5-5-5-5-5-5-5-5-16-14-14-|
D|-----------------------------------------------------------------------|
A|-----------------------------------------------------------------------|
D|-----------------------------------------------------------------------|

Riff 1: Played twice (Turn on Wah pedal)
e|-----------------------------------------------------------------------|
B|-----------------------------------------------------------------------|
G|-----------------------------------------------------------------------|
D|------5b----------------------xxxxx------------------------------------|
A|------------------------------xxxxx------------------------------------|
D|--0---------3--0--7--0--3--0--xxxxx-3--0--7--0--3--0-------------------|

Chorus: Played twice (Turn off Wah)
e|-----------------------------------------------------------------------|
B|-----------------------------------------------------------------------|
G|-----------------------------------------------------------------------|
D|------5b----------------------xxxxx------------------------------------|
A|------------------------------xxxxx------------------------------------|
D|--0---------3--0--7--0--3--0--xxxxx-3--0--7--0--3--0-------------------|

Then...
e|-----------------------------------------------------------------------|
B|-----------------------------------------------------------------------|
G|--------------------------------------------222222bend-----------------|
D|------5b----------------------xxxxx------------------------------------|
A|------------------------------xxxxx------------------------------------|
D|--0---------3--0--7--0--3--0--xxxxx-3--0-------------------------------|

e|-----------------------------------------------------------------------|
B|-----------------------------------------------------------------------|
G|-----------------------------------------------------------------------|
D|------5b----------------------xxxxx------------------------------------|
A|------------------------------xxxxx------------------------------------|
D|--0---------3--0--7--0--3--0--xxxxx-3--0--7--0--3--0-------------------|

Then this: Played three times
e|-----------------------------------------------------------------------|
B|-----------------------------------------------------------------------|
G|----------------5~--7~-------------------------------------------------|
D|-----------------------------------------------------------------------|
A|-----------------------------------------------------------------------|
D|--0-0-0-0-0-0-0--------------------------------------------------------|

then this: Played once
e|-----------------------------------------------------------------------|
B|-----------------------------------------------------------------------|
G|-----------------------------------------------------------------------|
D|------5b----------------------xxxxx------------------------------------|
A|------------------------------xxxxx------------------------------------|
D|--0---------3--0--7--0--3--0--xxxxx-3--0--7--0--3--0-------------------|

Then repeat 

e|--Remember--This-part-is-played-three-times-:)-------------------------|
B|-----------------------------------------------------------------------|
G|----------------5~--7~-------------------------------------------------|
D|-----------------------------------------------------------------------|
A|-----------------------------------------------------------------------|
D|--0-0-0-0-0-0-0--------------------------------------------------------|

e|-----------------------------------------------------------------------|
B|-----------------------------------------------------------------------|
G|-----------------------------------------------------------------------|
D|------5b----------------------xxxxx------------------------------------|
A|------------------------------xxxxx------------------------------------|
D|--0---------3--0--7--0--3--0--xxxxx-3--0--7--0--3--0-------------------|

And that's the end to RATM - Born of a Broken Man.

Questions? Comments? Corrects? Shortys99887@hotmail.com
Comments