Rage Against The Machine - Born Of A Broken Man Chords & Tabs

 

Born Of A Broken Man Chords & Tabs

Rage Against The Machine Chords & Tabs

Version: 6 Type: Tab 0 ratings
1 star 2 stars 3 stars 4 stars 5 stars
comments

Born Of A Broken Man Tab

"Broken Man" - Rage Against the Machine
---------------------------------------------------
transcribed by Jason Brogan (Weezer451@aol.com)
----------------------------------------------

Dropped-D tuning (DADGBE)

intro - riff 1   played with very low distortion
------
E|---------------------------------------|
B|---------------------------------------|
G|-14-14-14-14-14--13-13-13-16-16--------|
D|--0--0--0--0--0---0--0--0--0--0--------|
A|--0--0--0--0--0---0--0--0--------------|
D|---------------------------------------|

E|--x--x--x--x--x----------------------|
B|--x--x--x--x--x----------------------|
G|--0--0--0--0--0--4--2-2--------------|
D|--0--0--0--0--0--0--0-0--------------|
A|--x--x--x--x--x-----0-0--------------|
D|-17-17-17-17-17----------------------|

played two times

riff 2 - distortion
------
E|------------------------------------------------|
B|------------------------------------------------|
G|------------------------------------------------|
D|---5------------------x-x-x---------------------|
A|----------3-----------x-x-x---------3-----------|
D|-0---3-0----0--0-3-0--x-x-x--0-3-0----0--0-3-0--|

played 2 times then
[ Tab from: http://www.guitartabs.cc/tabs/r/rage_against_the_machine/born_of_a_broken_man_tab_ver_6.html ]
E|------------------------------------------------|
B|------------------------------------------------|
G|------------------------------------------------|
D|---5------------------x-x-x---------------------|
A|----------3-----------x-x-x---------5(b)-5------|
D|-0---3-0----0--0-3-0--x-x-x--0-3-0--------------|

(b)= bend and pick notes

E|------------------------------------------------|
B|------------------------------------------------|
G|------------------------------------------------|
D|---5------------------x-x-x---------------------|
A|----------3-----------x-x-x---------3-----------|
D|-0---3-0----0--0-3-0--x-x-x--0-3-0----0--0-3-0--|

riff one is played 2 times during the verse part

riff two - chorus

riff one - second verse

riff two - chorus

riff 3 
------
E|---------------------------|
B|---------------------------|
G|---------------------------|
D|---------------------------|
A|-------------15--17-17-17--|
D|-0-0-0-0-0-0---------------|

played three times 

then 

E|----------------------|
B|----------------------|
G|----------------------|
D|---5------------------|
A|----------3-----------|
D|-0---3-0----0--0-3-0--|

riff 1 - third verse

riff 2 - played several times
(play the first two times with the wah-wah closed)

riff 3 - outro


...back to tabulature 
Comments