Rage Against The Machine - Born Of A Broken Man Correct Chords & Tabs

 

Born Of A Broken Man Correct Chords & Tabs

Rage Against The Machine Chords & Tabs

Version: 1 Type: Tab 2 ratings
1 star 2 stars 3 stars 4 stars 5 stars
comments

Born Of A Broken Man Correct Tab

Atrist:rage against the machine
song:Born of a broken man 
Album:the battle of los Angeles

This is one of the few songs you can play without a whammy pedal,and it has a 
super easy solo.
INTRO
e-----------------------------------------------------------------------
b-----------------------------------------------------------------------
g--14-14-14-14-14-14-13-13-13-13-13-13--16-16-16---0-0-0-0-0---4-4---2-- 
d--0--0--0--0--0--0--0--0--0--0--0--0---0--0--0----0-0-0-0-0---0-0---0--
a--0--0--0--0--0--0--0--0--0--0--0--0-------------17-17-17-17-----------
E-----------------------------------------------------------------------
[ Tab from: http://www.guitartabs.cc/tabs/r/rage_against_the_machine/born_of_a_broken_man_correct_tab.html ]
-------------------------------------------------------------------|----
b------------------------------------------------------------------|----
g--14-14-14-14-14-14-13-13-13-13-13-13--16-16-16---0-0-0-0-0---4-4-|-2-- 
d--0--0--0--0--0--0--0--0--0--0--0--0---0--0--0----0-0-0-0-0---0-0-|-0--Turn vol.knob up.(guitar)
a--0--0--0--0--0--0--0--0--0--0--0--0-------------17-17-17-17------|----
E------------------------------------------------------------------|----

e----------------------------------------|------------------------------
b----------------------------------------|------------------------------
g----------------------------------------|------------------------------
d----(5)5--------------------------------|----7(7)(7)(7)(7)7------------
a-0--------3-0---0-3-0-xxxx-3-0---0-3-0--|------------------------------part way throgh riff
E-0--------3-0-7-0-3-0-xxxx-3-0-7-0-3-0--|------------------------------

solo/bridge
a------------------15-15h17-hold----------------
E-----0-0-0-0-0-0------------------------------- 4 times I think
Comments