Rage Against The Machine - Beautiful World Chords & Tabs

 

Beautiful World Chords & Tabs

Rage Against The Machine Chords & Tabs

Version: 3 Type: Tab 0 ratings
1 star 2 stars 3 stars 4 stars 5 stars
comments

Beautiful World Tab

   
Rage Against The Machine - Beautiful World (Devo)

Tabbed by: Joonas Kaselius a.k.a. Ronixis^

Listen the comp from the song. Let the chords ring. You can play highest E when
you're pulling your hand back. Every chord goes like 4x 1/8. Listen the song,
youll get it. D and the last chord of C are played through the whole beat.

A:
E||--0--|--0--|--0--|--0--||
B||--0--|--0--|--0--|--0--||
G||--5--|--4--|--5--|--7--||
D||--7--|--5--|--3--|--5--||
A||-----|-----|-----|-----||
E||-----|-----|-----|-----||
[ Tab from: http://www.guitartabs.cc/tabs/r/rage_against_the_machine/beautiful_world_tab_ver_3.html ]
B:
E||--0--|--0--|--0--|--0--|--0--|--0--||
B||--0--|--0--|--0--|--0--|--0--|--0--||
G||--5--|--4--|--5--|--4--|--5--|--7--||
D||--7--|--5--|--3--|--5--|--3--|--5--||
A||-----|-----|-----|-----|-----|-----||
E||-----|-----|-----|-----|-----|-----||

C:
E||--0--|--0--|-----|-----||
B||--0--|--0--|--0--|-----||
G||--5--|--5--|--0--|-----||
D||--7--|--3--|--5--|--7--||
A||-----|-----|--3--|--5--||
E||-----|-----|-----|-----||

D:
E||--0--||
B||--0--||
G||--5--||
D||--7--||
A||-----||
E||-----||

3x A -> 1x B -> 1x B -> 2x A -> 1x B -> 1x C -> 3x A -> 1x D

Any questions, mail to: ronixis1@msn.com or visit #rageagainstthemachine @ QuakeNet.
Comments