Rage Against The Machine - Battle Of Los Angeles Chords & Tabs

 

Battle Of Los Angeles Chords & Tabs

Rage Against The Machine Chords & Tabs

Version: 1 Type: Bass Tab

Battle Of Los Angeles Bass Tab

   
Album: Battle Of Los Angeles
Artist: Rage Against The Machine
Tabbed by: BassPlayer275

Questions, comments, corrections ---> jbilde@gmail.com


Track 1:

Title: Testify
Artist: Rage Against The Machine
Tuning: Drop-D (DADG)

 Intro:
G|---------------------------------|
D|---------------------------------|
A|-5^--5^--5^--5^--5^--5^--5^--5^--|
D|---------------------------------|

 Chorus:
G|------------------------------------------------------|
D|----------------------------------------------------6-|
A|-----------3-----5-3-----------------0-3-----5-3------|
D|-0--3-5-0-----0-------0-5-3-0--3-5-0------0-------0---|

 Verse:
G|------------------------------------------|
D|------------------------------------------|
A|----------------------------------8-10-10-|
D|-12\--------12\0/12-----12\0--------------|

 Bridge: (before gtr. solo)
G|------------------------------|-----------------|
D|------------------------------|-----------------|
A|-------------------0-3----5-3-|-5-5-5-5-5-5-5-5-|
D|-12\---0-5-3-12\-------0------|-----------------|

 Guitar Solo:
G|----------------------------/7------------------------|
D|----------------------------------------------------6-|
A|-----------3-----5-3-----------------0-3-----5-3------|
D|-0--3-5-0-----0-------0-5-3----3-5-0------0-------0---|

 Interlude:	     End:
G|------------------||-------------------|
D|-3----------------||-------------------|
A|--------3---------||-5^---5^---5^---5^-|
D|------------0-----||-------------------|



Track 2:

Title: Guerilla Radio
Artist: Rage Against The Machine
Tuning: EADG

 Intro: 
G|------------------------------------|
D|------------------------------------|
A|------------------------------------|
E|-2-2-2-2-2-2-2-2-2-2-2-2-2-2-2-/14\-|

 Chorus:                  PreVerse:
G|----------------------||-2--------1-------|
D|----------------------||------------------|
A|------------------0-2-||------------------|
E|-0-2-2--0-2--0-2------||---2-0-0----2-0-0-|

 Verse:                   Verse Fill:
G|-2\-----2-2--4-4--5-5-||-2\--------------2-2--4-4--5-5-|
D|----------------------||-----2-2-0-0-5-5---------------|
A|----------------------||-------------------------------|
E|-2\-------------------||-2\----------------------------|

 Outro:
G|----------------------------------|
D|----------------------------------|
A|----------------------------------|
E|-0-2--14\---0-2--14\---0-2--14\---|



Track 3:

Title: Calm Like A Bomb
Artist: Rage Against The Machine
Tuning: DADG

 Intro:
G|-----0-2-----------0-0---------------------------------|
D|-2-4-----4-2-0-2-4-----2-0-----0-2-4-0-------0-2-2-----|
A|---------------------------4-0---------4-2-4-------4-2-|
D|-------------------------------------------------------|

G|-----------------------------0-2-----------0-0---------|
D|-------0-----2---0-4-0-2-2-4-----4-2-0-2-4-----2-0-----|
A|-1---2---2-4---4-----------------------------------4-0-|
D|---4---------------------------------------------------|

 Verse:
G|----2-4-2--/7-|---4-2-4--4-2-4--4-2-4-|
D|--------------|-----------------------|
A|-2------------|-2---------------------|
D|--------------|-----------------------|

 PreChorus:
G|-----------------------------------------------------|
D|-----------------------------------------------------|
A|-0-2-x-x-x-x-x-x-x-x-x-x-x-x-x-x-x-0-2-0-2--2-2--5-5-|
D|-----------------------------------------------------|

 Chorus:
G|-----------------------------------------|
D|-----------------------------------------|
A|-0-2--x-5-2-x-x-x-5--2--0-2--x-5-2-0---0-|
D|-------------------------------------0---|

 Guitar Solo:
G|---------------------|---------9-7-9--------------|
D|---------------------|----------------------------|
A|-7--7--7--7--5-5-5-5-|-7--7--7-------7--7-5-5-5-5-|
D|---------------------|----------------------------|



Track 4:

Title: Mic Check
Artist: Rage Against The Machine
Tuning: EADG

 Main Riff:
G|--------------|--------------|
D|--------------|--------------|
A|--------------|--------------|
E|-2---0-----2--|-2---0-----2--|

 Interlude:
G|-----------------|-----------------|
D|-4-4-------------|-4-4-------------|
A|-----3-3-----0-0-|-----3-3---------|
E|---------2-2-----|---------0-0-2-2-|



Track 5:

Title: Sleep Now In The Fire
Artist: Rage Aginst The Machine
Tuning: EADG

 Intro:
G|--------------------------------------------------|
D|--------------------------------------------------|
A|-/12\-/12\-/12\-/12\-/12\-/12\-/12\--/12-12-12-12-|
E|--------------------------------------------------|

 Chorus:
G|-------------|---------------|------------------|
D|-------------|---------------|-------7--------7-|
A|-------------|---------------|------------------|
E|-3-3-5-3-5-3-|-3-3-3-5-3-5-3-|-3-5-5----3-5-5---|

 Verse:
G|--------------------|----------------------|
D|--------------------|----------------------|
A|--------------------|----------------------|
E|-5-3-5-3-5-5-33-5-3-|-5-3-5-3-5-5-33-5-3-5-|
[ Tab from: http://www.guitartabs.cc/tabs/r/rage_against_the_machine/battle_of_los_angeles_btab.html ]
 Last Chorus:
G|---------------|-----------------|--------------------|
D|---------------|-----------------|-------/7--------/7-|
A|---------3-----|----------3------|--------------------|
E|-5-5-3-5----5--|-5-5-5-3-5----5--|-3-5-5-----3-5-5----|



Track 6:

Title: Born Of A Broken Man
Artist: Rage Against The Machine
Tuning: Drop-D (DADG)

 PreChorus:
G|-------------------------------------|
D|-------------------------------------|
A|-(-fade-in-)-------------------------|
D|--0~~~~~~~~~~~~~~~~~~~~~~~~~~~~~~~~~-|

 Chorus:
G|----------------------|------------------------|--------|
D|----------------------|------------------------|--fade--|
A|----------------------|------------------------|--out---|
D|-0--6p5-3-0--7-0--3-0-|-x-x-x-x--3-0--7-0--3-0-|-0~~~~~-|

 Outro:		  Outro Variation:
G|---------------||---------------17----17-19-|
D|---------------||---------------------------|
A|---------------||---------------------------|
D|-0-0-0-0-0-0-0-||-0-0-0-0-0-0-0-------------|



Track 7:

Title: Born As Ghosts
Artist: Rage Against The Machine
Tuning: EADG

 Verse:		      Chorus:
G|---|---------------||---|--------------|
D|-0-|-----0------0--||-0-|------------0-|
A|---|--------9^-----||---|--------------|
E|---|-0-------------||---|-0-0---0-0----|

 Interlude:
G|-/9--/9--/9--/9-------------/9--/9--/9--|
D|----------------------------------------|
A|-----------------5-7-5-0----------------|
E|-------------------------0--------------|



Track 8:

Title: Maria
Artist: Rage Against The Machine
Tuning: EADG

 Verse:
G|-------------------------9-9-9-9-|
D|-------5-5-5-7-7-7---------------|
A|-7-7-7-------------5-5-5---------|
E|---------------------------------|

 PreChorus:
G|-------------------------|
D|-----------5-5---5-5---5-|
A|-7-7-7-7-------7-----5---|
E|-------------------------|

 Chorus:
G|----------------------------------------------------|
D|----------------------------------------------------|
A|-7-5-7--0-5-2-5-------------------------------------|
E|-----------------5-3-5--0--3-0-3--0-5-3-5--0-7-5-7--|

 Chorus Variation:
G|-------------------------------------------------------|
D|-------------------------------------------------------|
A|-7-5-/10--7-5-0-5-2------------------------------------|
E|--------------------5-3-5--0--3-0-3--0-5-3-5--0-7-5-7--|



Track 9:

Title: Voice Of The Voiceless
Artist: Rage Against The Machine
Tuning: Drop-D (DADG)

 Intro/Bridge:
G|-------------------------------|
D|-------------------------------|
A|-5-3-5--3-0-3------------------|
D|---------------5-3-5--3-0-3--5-|

 Chorus:
G|----------------------|----------------------|
D|------3---------------|------3---------5-3---|
A|-3h5-----5-3-5--3-5-5-|-3h5-----5-3-5------5-|
D|----------------------|----------------------|

 Verse:
G|---------------|---------------|
D|---------------|---------------|
A|---------------|---------------|
D|-5---8---5-3-5-|-5---0---5-3-5-|



Track 10:

Title: New Millenium Homes
Artist: Rage Against The Machine
Tuning: EADG

 Intro/Chorus:
G|------------------|--------------------------------|
D|------------------|--------------5----7----5h7-----|
A|-----5h7------5---|-----5h7--------7----7----------|
E|-0-0-------0----5-|-0-0-------0-----------------0--|

 Verse:			       Verse Fill:
G|-0--------------0-----------||---------|
D|-2--------------2-----------||-------0-|
A|----------------------------||-0-2-0---|
E|-----0--0-0-------0--0--0-0-||---------|

 PreChorus:
G|---------------------|
D|---------------------|
A|--------7-7-7--------|
E|-0-0-0---------0-0-0-|

 Chorus Variation (gtr. solo): 
G|----------------------------------------|
D|--------------5/7-5---------------5/7-5-|
A|-----5h7-----------------5h7------------|
E|-0-0-------0---------0-0-------0--------|

G|-------------------------------------------------9-9-9-|
D|--------------5/7-5---------------5------7-7-5-5-------|
A|---7---------------------5h7--------7--7---------------|
E|-0---5-0-3--0--------0-0-------0-----------------------|



Track 11:

Title: Ashes In The Fall
Artist: Rage Against The Machine
Tuning: Drop-D (DADG)

 Intro/Verse:
G|-----------|
D|-10-12-0-x-|
A|-----------|
D|-----------|

 Chorus:	    Gtr Solo:
G|-----------------||-----------|
D|-----------------||-----------|
A|-3-------3-------||-----------|
D|-----------------||-10-12-0-x-|

Outro: (with delay) 
G|------------------------|-----------------------|
D|--0-(0)-(0)-(0)-(0)-(0)-|-----------------------|
A|------------------------|-----------------------|
D|------------------------|-0-(0)-(0)-(0)-(0)-(0)-|
	(0) = delay feedback



Track 12:

Title: War Within A Breath
Artist: Rage Against The Machine
Tuning: Db Ab Db Gb (tuned to DADG when played live)

  Intro:
Gb|-------------|------------------------------|
Db|-------14p11-|-x--x-x-x--x-x--x-------14p11-|
Ab|-12h14-------|------------------12h14-------|
Db|-------------|------------------------------|

  Chorus:			 Bridge:
Gb|--------------|--------------||----------------|
Db|--------------|--------------||----------------|
Ab|--------3-5---|--------3-5---||----------------|
Db|-0--3-5-----3-|-0--3-5-----3-||-0~~~~~~~~~~~~~-|