Rage Against The Machine - Ashes In The Fall Chords & Tabs

 

Ashes In The Fall Chords & Tabs

Rage Against The Machine Chords & Tabs

Version: 1 Type: Tab 1 rating
1 star 2 stars 3 stars 4 stars 5 stars
comments

Ashes In The Fall Tab

   
Drop-D-Tuning 
 
Intro:some digtech whammy effect???? 
 
E-17-----17-----17-18-----18-----18-20-----20-----20-18-----18-----18-| 
B---15-15--15-15-----15-15--15-15-----15-15--15-15-----15-15--15-15---| 
G---------------------------------------------------------------------| 
D---------------------------------------------------------------------| 
A---------------------------------------------------------------------| 
D---------------------------------------------------------------------| 
 
Verse: with delay
E-22------------20---------------------| 
B--------------------------------------| 
G--------------------------------------| 
D--------------------------------------| 
A--------------------------------------| 
D--------------------------------------| 
 
Chorus: ??
E--------------------------------------| 
B--------------------------------------| 
G--------------------------------------| 
D---14-14-14---------------------------| 
A---14-14-14---------------------------| 
D-?-14-14-14---------------------------| 
 
E--------------------------------------| 
B--------------------------------------| 
G--------------------------------------| 
D-0------------------------------------| 
A-0--------8---------------------------| 
D-0-~~~~~~-----------------------------| 
 
E-------------------------------------------| 
B-------------------------------------------| 
G-------------------------------------------| 
D-7-0-0-7-0-0-7-7-0-0-7-0-0-7-8-0-0-8-0-0---| 
A-7-0-0-7-0-0-7-7-0-0-7-0-0-7-8-0-0-8-0-0---| 
D-7-0-0-7-0-0-7-7-0-0-7-0-0-7-8-0-0-8-0-0-8-| 
 
Like Ashes in the fall....... 
E--------------------------------------| 
B--------------------------------------| 
G-11-----------------------------------| 
D---12---------------------------------| 
A--------------------------------------| 
D--------------------------------------|
I wanna shout out to my new band, Ducane. Peter
our drum player, Alan our fucking cherry guitarist
and me, backup guitar.Soonyou can check us out on 
Napster. E-mail me with
suggestions at sfshark@hotmail.com
[ Tab from: http://www.guitartabs.cc/tabs/r/rage_against_the_machine/ashes_in_the_fall_tab.html ]
Comments