Rage Against The Machine - Ashes In The Fall Chords & Tabs

 

Ashes In The Fall Chords & Tabs

Rage Against The Machine Chords & Tabs

Version: 1 Type: Bass Tab 0 ratings
1 star 2 stars 3 stars 4 stars 5 stars
comments

Ashes In The Fall Bass Tab

   
Rage Against The Machine "Ashes In The Fall"
>From the album "The Battle Of Los Angeles"

Drop D tuning, low to high: D A D G

After the guitar intro, play Fig. 1

              G----5-7-------------------
Fig. 1        D-----------0-------------
              A------------------------
              D------------------------

Then, When Zach says "This is the new sound" turn your volume knob all the 
way down, play a low D, then turn the volume knob all the way up gradually, 
making a nice crescendo.

[ Tab from: http://www.guitartabs.cc/tabs/r/rage_against_the_machine/ashes_in_the_fall_btab.html ]
              G------------------------
Fig. 2        D------------------------
              A------------------------
              D---0-------------------

After Fig. 2, play this. its the same as Fig. 1, only one octave lower...


              G------------------------
Fig. 3        D------------------------
              A--3--5--------------------
              D----------0--------------

Thats it, pretty simple. At the end of the song, if you have an echo pedal, 
play the low D muted, letting it echo a while...any questions or comments, 
email me!
                 -phil ross

bottomfeeder4@hotmail.com

Comments