Rage - Down By Law Chords & Tabs

 

Down By Law Chords & Tabs

Rage Chords & Tabs

Version: 1 Type: Tab 0 ratings
1 star 2 stars 3 stars 4 stars 5 stars
comments

Down By Law Tab

"Down by law"
(RAGE, Execution Garanteed '87)

Transcripted by Marco Grewenig (grewe@studcs.uni-sb.de), 21.04.1996

Sorry, aber da ich nicht das absolute Genie beim Aufschreiben von Takten
bin, sind wahrscheinlich einige Taktstriche falsch gesetzt. Hoert euch
deshalb den Song einfach ein paarmal an, dann muesstet ihr wissen
was ich mit dem gekritzel meine.
Zum Thema Powercords: Ich glaub einen RAGEsong nur mit Powercords zu spielen,
ist wie einen Pentium nur mit Windows zu betreiben.
Die folgenden TABs sind also nur ein Grundgeruest des Songs.
Wenn also jemand die original TABs haben sollte, oder ein paar Verbesserungs-
vorschlaege hat, mailt an grewe@cscip.uni-sb.de.
Ich bin uebrigens auf der Suche nach allen Rage, Blind Guardian, Iced Earth,
Running Wild, Stratovarius, Timo Tolkki, etc. TABS, die existieren. Also,
mailt mir.
Watch out for Grewe's Homepage... http://fsinfo.cs.uni-sb.de/~grewe

   Riff I
 ||-----------------------|-----------------------|
T||-----------------------|-----------------------|
A||*--5---4---5---2-2-2-2-|---8---5---7-----------|
B||*--5---4---5---2-2-2-2-|---8---5---7---7-7-7-7-|
 ||---3---2---3---0-0-0-0-|---6---3---5---7-7-7-7-|
 ||-----------------------|---------------5-5-5-5-|

                                        (4 times)
 |-----------------------|-----------------------||
T|-----------------------|-----------------------||
A|---5---4---5---2-2-2-2-|---5---4---2----------*||
B|---5---4---5---2-2-2-2-|---5---4---2---6------*||
 |---3---2---3---0-0-0-0-|---3---2---0---6-------||
 |-----------------------|---------------4-------||


  1st Verse                             (3 times)
 |---------||--------|--------|--------|---------||
T|---------||--------|--------|--------|---------||
A|--5--7---||*-9-----|--7-----|--9-----|--5--7--*||
B|--5--7---||*-9-----|--7-----|--9-----|--5--7--*||
 |--3--5---||--7-----|--5-----|--7-----|--3--5---||
 |---------||--------|--------|--------|---------||


  [Chorus                    (3 times)                                     ]
 ||-----------------------------------||-----|-----|-----|-----------------|
T||-----------------------------------||-----|-----|-----|-----------------|
A||*--9--10--7--9--10-------------9--*||-7---|-9---|-7---|-4-4-4-4-4-4-4-4-|
B||*--9--10--7--9--10--9---9-9-9--9--*||-7---|-9---|-7---|-4-4-4-4-4-4-4-4-|
 ||---7--8---5--7--8---9---9-9-9--7---||-5---|-7---|-5---|-2-2-2-2-2-2-2-2-|
 ||--------------------7---7-7-7------||-----|-----|-----|-----------------|

 Bass after 1st chorus
T|-----------|
A|-----------|
B|-3-2-0---0-|
 |-------3---|


  2nd Verse    Chorus                        Riff I (1/2 times)
 |------------|---------|---------|---------|---------------------|
T|------------|---------|---------|---------|---------------------|
A|-----*-/----|---*-/---|---------|---------|---------*-/---------|
B|-----/-*----|---/-*---|---------|--2--5---|---------/-*---------|
 |------------|---------|---------|--2--5---|---------------------|
 |------------|---------|---------|--0--3---|---------------------|

[ Tab from: http://www.guitartabs.cc/tabs/r/rage/down_by_law_tab.html ]
  Das folgende Solo ist eine vereinfachte Version des Originals.
  Das Original ist nicht wesentlich schwerer, jedoch nicht ganz klar
  herauszuhoeren.
  Hoert euch das Lied an und spielt das Solo so wie es euch gefaellt.
  Ok. Jetzt zum Grundriff.

  Solo    feed-back 1st&2nd(?) guitar
 |-----------------|-----|------|-----|-----|-----|------|-----|-----|
T|-10~~~~~~~~~~~~~~|-----|------|-----|-----|-----|------|-----|-----|
A|-----------------|-9---|-12---|-8---|-9---|-7---|-10---|-6---|-7---|
B|-----------------|-----|------|-----|-----|-----|------|-----|-----|
 |-----------------|-----|------|-----|-----|-----|------|-----|-----|
 |-----------------|-----|------|-----|-----|-----|------|-----|-----|

 |------|------|------|------|
T|------|------|------|------|
A|-11---|-14---|-10---|-11---|
B|------|------|------|------|
 |------|------|------|------|
 |------|------|------|------|

  1st guitar (2nd(?) guitar, Riff II)
 |-------|----12-14-12~~~~|----------------|--------------------------------|
T|-/14---|-14-------------|----12-14P12----|--------------------------------|
A|-------|----------------|-13-------------|-13-11-11H13P11-9P11H9---9---\8-|
B|-------|----------------|----------------|--------------------------------|
 |-------|----------------|----------------|--------------------------------|
 |-------|----------------|----------------|--------------------------------|

   Riff II, 2nd(?) guitar during solo
 ||---------------|-------------|-------------|-------------||
T||---------------|-------------|-------------|-------------||
A||*--6-----9-----|-6--9--11----|-6-----9-----|-6--8--9----*||
B||*--6-----9-----|-6--9--11----|-6-----9-----|-6--8--9----*||
 ||---4-----7-----|-4--7--9-----|-4-----7-----|-4--6--7-----||
 ||---------------|-------------|-------------|-------------||

                                                   (4 times)
 ||-----------------------|---------------------------------||
T||-----------------------|---------------------------------||
A||*--11--10--7-----------|--------------------------------*||
B||*--11--10--7--7---9-9--|-5-5-5---5-5-5---5-5-5---5-5-5--*||
 ||---9---8---5--7---9-9--|-5-5-5---5-5-5---5-5-5---5-5-5---||
 ||--------------5---7-7--|-3-3-3---3-3-3---3-3-3---3-3-3---||


  Chorus without guitars, only drums and vocals


  Chorus
 |---------|--------------|---------------|---------------|----------------|
T|---------|--------------|---------------|---------------|----------------|
A|---*-/---|-9--10--7-----|-10--11--8-----|-11--12--9-----|-12--14--10-----|
B|---/-*---|-9--10--7-----|-10--11--8-----|-11--12--9-----|-12--14--10-----|
 |---------|-7--8---5-----|-8---9---6-----|-9---10--7-----|-10--12--8------|
 |---------|--------------|---------------|---------------|----------------|

 |---------------------------------|
T|---------------------------------|
A|--9--10--7--9--10-------------9--|
B|--9--10--7--9--10--9---9-9-9--9--|
 |--7--8---5--7--8---9---9-9-9--7--|
 |-------------------7---7-7-7-----|

  Outro
 |--------------------------------|--------------|
T|--------------------------------|--------------|
A|--------------------------------|--------------|
B|-8--8-8-8--8-8-8--8-8-7--6-5-4--|-2------------|
 |-8--8-8-8--8-8-8--8-8-7--6-5-4--|-2------------|
 |-6--6-6-6--6-6-6--6-6-5--4-3-2--|-0------------|


Viel Spass beim Ausprobieren...
Tips und Kritik an Marco Grewenig, grewe@cscip.uni-sb.de
PS.: Watch out for Grewe's Homepage... http://fsinfo.cs.uni-sb.de/~grewe
Comments