Rage - Certain Days Chords & Tabs

 

Certain Days Chords & Tabs

Rage Chords & Tabs

Version: 1 Type: Bass Tab 0 ratings
1 star 2 stars 3 stars 4 stars 5 stars
comments

Certain Days Bass Tab

Title: Certain days
Band: Rage
Album: The missing link

Transcribed by Franck Hetroy (Franck.Hetroy@ensimag.imag.fr)


intro 1:

||----------------||
||----------------||
||----------------||
||-4---6---7---6--||

intro 2:

|------------|--------------|------------|--------------|
|------------|--------------|------------|--------------|
|------------|--------------|------------|--------------|
|-2----------|-2---------5-4|-2----------|-2---------5-4|

bridge nr 1:

|-----------------|-----------------|------------------|
|-----------------|-----------------|------------------|
|-----------------|-----------------|------------------|
|-2--2--2-4-5-4-2-|-2--5-4-2-4-5--5-|-2-4-5-4-5--5--5-4|

bridge nr 2:

|-------------------------|
|-------------------------|
|-------------------------|
|-2-4h5--5-4-5--5-4-5-4-5\|

verse:

|------------------------|
|------------------------|
|------------------------|
|-2--4--5--4--2--4--5--4-|

chorus:

|------------------------|------------------------|-------------------------|-----------------------|
|------------------------|------------------------|-------------------------|-----------------------|
|------------------------|------------------------|-------------------------|-----------------------|
|-5--5--5--5--5--5--5--5-|-5--5--5--5--5--5--5--5-|--5--5--5--5--5--5--5--5-|-5--5--5--5--5--5--8-7-|

variation of bridge nr 1:
[ Tab from: http://www.guitartabs.cc/tabs/r/rage/certain_days_btab.html ]
|--------------------|------------------|------------------|----------|
|--------------------|------------------|------------------|----------|
|--------------------|------------------|------------------|----------|
|-2-2-2-2--2-4-5-4-2-|-2-2-2--5-4-2-4-5-|-5-5-5--2-4-5-4-5-|-5-5-5--4-|


SONG STRUCTURE:
--------------

intro 1 (6 times)
intro 2
bridge nr 1 (2 times)
bridge nr 2 (6 times)
nothing during the 1st part of the 1st verse
verse (2 times)
bridge nr 1
chorus (2 times)
bridge nr 2 (4 times)
verse (4 times)
bridge nr 1
chorus (4 times)
bridge nr 2 (4 times)
during the guitar solo: intro 1 (4 times)
                        variation of bridge nr 1
chorus (2 times)
bass solo: bridge nr 2 (6 times)
chorus (4 times)
intro 2
intro 1 (6 times)

I hope it's OK.

LYRICS:
------

When I remember what happened that lead me right here
What made me lonely and forced me to disappear
There were periods in my life that came from my darkest depths, beyond the edge,
Like a delirium I couldn't help, I drifted aside, it wasn't right


Time, time has slipped away
Life was a distant haze
This was on certain days
I, I had lost my way
Got lost without a trace
This was on certain days, I went mad


I can recall the days when things were fine
Everyone was happy enjoying their time
But the first time it came over me I had lost my friends, I did harm to them,
The judges told me I was insane, I tried to kill, I tried to kill !


Time, time has slipped away
Life was a distant haze
This was on certain days
I, I had lost my way
Got lost without a trace
This was on certain days, I went mad


Lyrics and music by Peavy Wagner

Comments and suggestions are welcome:
-> please e-mail me: Franck.Hetroy@ensimag.imag.fr
Comments