Rage - Black In Mind Chords & Tabs

 

Black In Mind Chords & Tabs

Rage Chords & Tabs

Version: 1 Type: Tab 0 ratings
1 star 2 stars 3 stars 4 stars 5 stars
comments

Black In Mind Tab

Black in Mind 

Tabbed by Neil "Ktulu" Flavelle
flavelle@alphalink.com.au

What can you say about a song like Black in Mind, but "Classic". 
Too bad about the crap solo though.

Tune down half a step (1 fret)

E -----------------------------------------
B -----------------------------------------
G -----------------------------------------
D -8-8-8--7--5--5-5-5 s 7------------------
A -8-8-8--7--5--5-5-5 s 7------------------
E -6-6-6--5--3--3-3-3 s 5------------------

Pm     ..........       .........

E -----------------------------------------[--------------------------------
B -----------------------------------------[--------------------------------
G -----------------------------------------[--------------------------------
D --2-----2-2-2-2--2-----2-2-2-2-----------[-2-----2-2-2-2--2-----2-2-2-2--8
A --2-----2-2-2-2--2-----2-2-2-2-----------[-2-----2-2-2-2--2-----2-2-2-2--8
E --3 p 0-0-0-0-0--3 p 0-0-0-0-0---6-5-3-0-[-3 p 0-0-0-0-0--3 p 0-0-0-0-0--6

Play the first part, then the second, then the first again, and then the openning riff.

 Pm       . . . .         . .         . . . .         . . . .     . . .  . .  . . . 
E ----------------------------------------------------------------------------------
B ----------------------------------------------------------------------------------
G ----------------------------------------------------------------------------------
D ----------------------------------------------------------------------------------
A -5 h 7--7-7-7-7--5 h 7--7-7--5 h 7-----------5 h 7--7-7-7-7-5 h 7-7-7--5-5--------
E ------------------------------------6-5-3-0--------------------------------6-5-3-0

 Pm       . . . .      . .   . . . . .
E ----------------------------------------------------------------
B ----------------------------------------------------------------
G ----------------------------------------------------------------
D ----------------------------------------8-8-8--7--5--5-5-5 s 7--
A -5 h 7--7-7-7-7-5 h 7-7-7--5-5----------8-8-8--7--5--5-5-5 s 7--
E -------------------------------6-5-3-0--6-6-6--5--3--3-3-3 s 5--

Verse "I've seen it coming, it's got to be"

E -----------------------------------------[--------------------------------
B -----------------------------------------[--------------------------------
G -----------------------------------------[--------------------------------
D --2-----2-2-2-2--2-----2-2-2-2-----------[-2-----2-2-2-2--2-----2-2-2-2--8
A --2-----2-2-2-2--2-----2-2-2-2-----------[-2-----2-2-2-2--2-----2-2-2-2--8
E --3 p 0-0-0-0-0--3 p 0-0-0-0-0---6-5-3-0-[-3 p 0-0-0-0-0--3 p 0-0-0-0-0--6

Play the first part, then the second, then the first again, and then the openning riff.
[ Tab from: http://www.guitartabs.cc/tabs/r/rage/black_in_mind_tab.html ]
"Leaving my dreams far behind"
 Pm           . . . . . . . .                 . . . . . . . . . . . . 
E --------------------------------------------------------------------------
B --------------------------------------------------------------------------
G ----7------------------------------7--------------------------------------
D -5--7--------------------------5---7--------------------------------------
A -5--5--5--4--------------------5---5--5--4--------------------------------
E -3-----6--5--5-5-5-5-5-5-5-5---3------6--5--5-5-5-5--7-7-7-7-7-7-7-7------

"Black In Mind"
                     Pm  . . . .    . . . .      . .    . . . .     . . . .      . .
E ------------[ X 4     ---------------------------------------------------------------
B ------------[ Then    ---------------------------------------------------------------
G ------------[ Play    ---------------------------------------------------------------
D -5-------4--[         ----------0-----------0-------0-----------2-----------2-------2
A -7---2---5--[         -2-2-2-2--2--2-2-2-2--2--2-2--2--3-3-3-3--3--3-3-3-3--3--3-3--3
E -0---3------[         ---------------------------------------------------------------

 Pm. . . .    . . . .     . .     . . . .    . . . .       . .    
E ---------------------------------------------------------------
B ---------------------------------------------------------------
G ---------------------------------------------------------------
D ---------0-----------0-------0---------------------4--4--2-2--2
A 2-2-2-2--2--2-2-2-2--2--2-2--2----------2----------4--4--2-2--2
E --------------------------------3-3-3-3-3--2-2-2-2-2--2--0-0--0 

I won't put it the solo 'cause it's shit, but this is somewhere near the end.

E ---------------------------------------------------
B ---------------------------------------------------
G ---------------------------------------------------
D ---------------------------------------------------
A -5 h 7--7-7-7-7--5 h 7--7-7--5 h 7-----------------
E -----------------------------------6-5-3-0 --------

E ----------------------------------------------
B ---------------------------------------------- 
G ---------------------------------------------- 
D ---------------5--7 b (9) r -5----------------
A -5 h 7 -7-7-7-------------------5 h 7---------
E ----------------------------------------------

E ---------------------------------------------------
B ---------------------------------------------------
G ---------------------------------------------------
D ---------------------------------------------------
A -5 h 7--7-7-7-7--5 h 7--7-7--5 h 7-----------------
E -----------------------------------6-5-3-0 --------

 I don't think I figured this part out right.
E ------------------------------------------
B ------------------------------------------
G -7 p 4-----4------------------------------
D --------7-----7 p 5-----5-----------------
A ---------------------7-----7 p 5----------
E -----------------------------------6-5-3-0
Comments