Radish - Still I Wait Chords & Tabs

 

Still I Wait Chords & Tabs

Radish Chords & Tabs

Version: 1 Type: Bass Tab 0 ratings
1 star 2 stars 3 stars 4 stars 5 stars
comments

Still I Wait Bass Tab

Song  : Still I Wait
Band  : Radish 
Album : Restraining Bolt


Tabbed by : Richard Acton (richard@timekeep.demon.co.uk)

-: BASS VERSION (hense the 4 strings) :-

Riff 1 - Verse

G|-------------------------
D|-------------------------
A|-------------------------
E|-0------0-------0-------0

Riff 2 - Chorus / Played through that excellant solo!

G|--------------------
D|------------00------
A|--------22------00--
E|----00--------------        

Riff 3 - Pre-Solo

G|--------
D|--------
A|-22---00
E|--------

Riff 4 - each part played about 3/4 times except the end bit

Riff 4 a
[ Tab from: http://www.guitartabs.cc/tabs/r/radish/still_i_wait_btab.html ]
G|---------------
D|---------00----
A|-----22------00
E|-00------------


Riff 4 b

G|---------------
D|---------11----
A|-----33------11
E|-11------------


Riff 4 c

G|---------------
D|---------22----
A|-----44------22
E|-22------------


This is just about right. You've got my address if you want to complain, 
but you shouldnt need to. If any one has any info on when Radish are in the UK
please tell me. I am dieing to see them. Anyway, this is for educational purposes
any likeness in this tab and the original is completely coincidential etc etc. Must be said
i dont want to be sued!!

--Rich--




Comments