Radiohead - You Chords & Tabs

 

You Chords & Tabs

Radiohead Chords & Tabs

Version: 2 Type: Tab 0 ratings
1 star 2 stars 3 stars 4 stars 5 stars
comments

You Tab

   
Radiohead - "You"

Intro:
E|---------------10------------------10-----------------
B|--9---------9----------9--------9-----------12--------
G|---------9---------9---------9----------9---------9---
D|------9-------------------9--------------------9------
A|------------------------------------------------------
E|------------------------------------------------------

E|------------------------------------------
B|--12--------10---------10-----------------
G|--------9----------9-------9--------------
D|-----9----------9-------------------------
A|------------------------------------------
E|------------------------------------------
[ Tab from: http://www.guitartabs.cc/tabs/r/radiohead/you_tab_ver_2.html ]
Then repeat:
E|----------10-----------10-----------------------------
B|--9-----9------9-----9------12-----12-----10-----10---
G|----9------------9-------------9------9------9--------
D|------9------9-----9------9------9------9------9----9-
A|------------------------------------------------------
E|------------------------------------------------------

Also:
E|--------------------------------------------------------------
B|--------------------------------------------------------------
G|-5/9-9999-9/11-11111111--------------11/12--12/14--14/16------
D|-----------------------(same rhythm)--------------------------
A|-7/7-7777-7/9---9-9-9-9---------------9/10--10/12--12/14------
E|--------------------------------------------------------------

G|-16/17--17\16--16\7-------------------

A|-14/15--15\14--14\5-------------------


Then later: E  C#  C
Comments