Radiohead - You Never Wash Up After Yourself Chords & Tabs

 

You Never Wash Up After Yourself Chords & Tabs

Radiohead Chords & Tabs

Version: 2 Type: Tab 0 ratings
1 star 2 stars 3 stars 4 stars 5 stars
comments

You Never Wash Up After Yourself Tab

   
radiohead, You never ...
Paskannoy Alexander, pasikhead@excite.com

You never wash up after yourself - by RADIOHEAD

Transcribed by Alexander Paskannoy (pasikhead@excite.com)

  Dm           Dm\C          Dm\B         Dm\G
|-------1-------------1--------------1------------1-----
|-----3---3--------3---3--------3---3--------3---3------
|---2-------2----2-------2----0-------0----0-------0----
|-0-----------------------------------------------------
|----------------3------------2-------------------------
|----------------------------------------------3--------
[ Tab from: http://www.guitartabs.cc/tabs/r/radiohead/you_never_wash_up_after_yourself_tab_ver_2.html ]
  Am\C           Am\B        Am           Am            Am\F
|--------0-------------0-------------0-------------0--------------0--
|------1---1--------1---1--------1---1--------1---1---------1---1----
|----2-------2----2-------2----2-------2----2-------2-----2-------2--
|--------------------------------------------------------------------
|--3--------------2------------0-------------0-----------------------
|---------------------------------------------------------------1----

 G               Em            Am
|--------3--------------0--------------0----------
|------0---0---------0---0---------1---1----------
|----0-------0-----0-------0-----2-------2--------
|-------------------------------------------------
|---------------------------------0---------------
|--3-------------0--------------------------------

             G              C             C   
|--------3------------3--------------3--------------3------------
|------1---1-------0---0---------1---1---------1---1-------------
|----0-----------0--------0-----0-------0-----0-------0----------
|----------------------------------------------------------------
|--3-------------------------3-------------3-------------------3-
|--------------3-------------------------------------------------


Comments