Radiohead - Wolf At The Door Chords & Tabs

 

Wolf At The Door Chords & Tabs

Radiohead Chords & Tabs

Version: 4 Type: Tab 0 ratings
1 star 2 stars 3 stars 4 stars 5 stars
comments

Wolf At The Door Tab

  A wolf at the Door                                


Lead Guitar
-



                                                                   
E||---------------|--1------------|---------------|--0------------|
B||---------------|---------------|---------------|---------------|
G||---------------|---------------|---------------|---------------|
D||--0------------|---------------|--0------------|---------------|
A||---------------|---------------|---------------|---------------|
E||---------------|---------------|---------------|---------------|


                                                                                
---------------|---------------|---------------|---------------|---------------|
---------------|--4------------|---------------|--3------------|---------------|
---------------|---------------|---------------|---------------|---------------|
---------------|---------------|---------------|---------------|---------------|
---------------|---------------|---------------|---------------|--0------------|
--3------------|---------------|--3------------|---------------|---------------|


                                                                  
---------------|---------------|---------------|-----------------|
--3------------|---------------|--2------------|------------3----|
---------------|---------------|---------------|-------2---------|
---------------|---------------|---------------|--0--------------|
---------------|---------------|---------------|-----------------|
---------------|--3------------|---------------|-----------------|


                                                                        
--1--------------|-----------------|--0--------------|-----------------|
-------3---------|------------3----|-------3---------|-----------------|
------------2----|-------2---------|------------2----|------------3----|
-----------------|--0--------------|-----------------|-------5---------|
-----------------|-----------------|-----------------|-----------------|
-----------------|-----------------|-----------------|--3--------------|


                                                                        
-----------------|-----------------|-----------------|-----------------|
--4--------------|-----------------|--3--------------|-----------------|
-------3---------|------------3----|-------3---------|------------2----|
------------5----|-------5---------|------------5----|-------2---------|
-----------------|-----------------|-----------------|--0--------------|
-----------------|--3--------------|-----------------|-----------------|


                                                                        
-----------------|-----------------|------------0----|-----------------|
--3--------------|-----------------|--2----3---------|------------3----|
-------2---------|------------2----|-----------------|-------2---------|
------------2----|-------2---------|-----------------|--0--------------|
-----------------|-----------------|-----------------|-----------------|
-----------------|--3--------------|-----------------|-----------------|


                                                                        
--1--------------|-----------------|--0--------------|-----------------|
-------3---------|------------3----|-------3---------|-----------------|
------------2----|-------2---------|------------2----|------------3----|
-----------------|--0--------------|-----------------|-------5---------|
-----------------|-----------------|-----------------|-----------------|
-----------------|-----------------|-----------------|--3--------------|


                                                                        
-----------------|-----------------|-----------------|-----------------|
--4--------------|-----------------|--3--------------|-----------------|
-------3---------|------------3----|-------3---------|------------2----|
------------5----|-------5---------|------------5----|-------2---------|
-----------------|-----------------|-----------------|--0--------------|
-----------------|--3--------------|-----------------|-----------------|


                                                                        
-----------------|-----------------|-----------------|-----------------|
--3--------------|-----------------|--2--------------|------------3----|
-------2---------|------------2----|-------2---------|-------2---------|
------------2----|-------2---------|------------2----|--0--------------|
-----------------|-----------------|-----------------|-----------------|
-----------------|--3--------------|-----------------|-----------------|


                                                                    
----------------|----------------|----------------|----------------|
-----------3----|-----------3----|-----------3----|-----------3----|
------2---------|------2---------|------2---------|------4---------|
----------------|----------------|----------------|----------------|
----------------|----------------|----------------|----------------|
----------------|----------------|----------------|----------------|


                                                                    
----------------|----------------|----------------|----------------|
-----------3----|-----------3----|-----------3----|-----------2----|
------4---------|------4---------|------4---------|------2---------|
----------------|----------------|----------------|----------------|
----------------|----------------|----------------|----------------|
----------------|----------------|----------------|----------------|


                                                                   
----------------|----------------|----------------|--2------------|
-----------2----|-----------2----|-----------2----|--2------------|
------2---------|------2---------|------2---------|--2------------|
----------------|----------------|----------------|---------------|
----------------|----------------|----------------|---------------|
----------------|----------------|----------------|---------------|


                                                                             
--14~-13~-14~-13~-14~---|------------------|----------------|---------------|
------------------------|--15--------14----|--12~-----------|---------------|
------------------------|------------------|----------------|--7------------|
------------------------|------------------|----------------|---------------|
------------------------|------------------|----------------|---------------|
------------------------|------------------|----------------|---------------|


                                                                               
--1~-----------|--0~-----------|---------------|--------------|---------------|
---------------|---------------|--3~-----------|--------------|--3~-----------|
---------------|---------------|---------------|--------------|---------------|
---------------|---------------|---------------|--------------|---------------|
---------------|---------------|---------------|--------------|---------------|
---------------|---------------|---------------|--------------|---------------|


                                                                                
---------------|---------------|---------------|---------------|---------------|
--1~-----------|--1~-----------|--2~-----------|--2~-----------|---------------|
---------------|---------------|---------------|---------------|---------------|
---------------|---------------|---------------|---------------|--0------------|
---------------|---------------|---------------|---------------|---------------|
---------------|---------------|---------------|---------------|---------------|

[ Tab from: http://www.guitartabs.cc/tabs/r/radiohead/wolf_at_the_door_tab_ver_4.html ]
                                                                                
--1~-----------|--0~-----------|---------------|---------------|---------------|
---------------|---------------|--3~-----------|--3------------|--3~-----------|
---------------|---------------|---------------|---------------|---------------|
---------------|---------------|---------------|---------------|---------------|
---------------|---------------|---------------|---------------|---------------|
---------------|---------------|---------------|---------------|---------------|


                                                                                
---------------|---------------|---------------|---------------|---------------|
--1~-----------|--1~-----------|--2~-----------|--2~-----------|---------------|
---------------|---------------|---------------|---------------|---------------|
---------------|---------------|---------------|---------------|--0------------|
---------------|---------------|---------------|---------------|---------------|
---------------|---------------|---------------|---------------|---------------|


                                                                               
--1~-----------|--0~-----------|---------------|--------------|---------------|
---------------|---------------|--3~-----------|--------------|--3~-----------|
---------------|---------------|---------------|--------------|---------------|
---------------|---------------|---------------|--------------|---------------|
---------------|---------------|---------------|--------------|---------------|
---------------|---------------|---------------|--------------|---------------|


                                                                    
---------------|---------------|-----------------|--1--------------|
--1~-----------|--2~-----------|------------3----|-------3---------|
---------------|---------------|-------2---------|------------2----|
---------------|---------------|--0--------------|-----------------|
---------------|---------------|-----------------|-----------------|
---------------|---------------|-----------------|-----------------|


                                                                        
-----------------|--0--------------|-----------------|-----------------|
------------3----|-------3---------|-----------------|--4--------------|
-------2---------|------------2----|------------3----|-------3---------|
--0--------------|-----------------|-------5---------|------------5----|
-----------------|-----------------|-----------------|-----------------|
-----------------|-----------------|--3--------------|-----------------|


                                                                        
-----------------|-----------------|-----------------|-----------------|
-----------------|--3--------------|-----------------|--3--------------|
------------3----|-------3---------|------------2----|-------2---------|
-------5---------|------------5----|-------2---------|------------2----|
-----------------|-----------------|--0--------------|-----------------|
--3--------------|-----------------|-----------------|-----------------|


                                                                        
-----------------|------------0----|-----------------|--1--------------|
-----------------|--2----3---------|------------3----|-------3---------|
------------2----|-----------------|-------2---------|------------2----|
-------2---------|-----------------|--0--------------|-----------------|
-----------------|-----------------|-----------------|-----------------|
--3--------------|-----------------|-----------------|-----------------|


                                                                        
-----------------|--0--------------|-----------------|-----------------|
------------3----|-------3---------|-----------------|--4--------------|
-------2---------|------------2----|------------3----|-------3---------|
--0--------------|-----------------|-------5---------|------------5----|
-----------------|-----------------|-----------------|-----------------|
-----------------|-----------------|--3--------------|-----------------|


                                                                        
-----------------|-----------------|-----------------|-----------------|
-----------------|--3--------------|-----------------|--3--------------|
------------3----|-------3---------|------------2----|-------2---------|
-------5---------|------------5----|-------2---------|------------2----|
-----------------|-----------------|--0--------------|-----------------|
--3--------------|-----------------|-----------------|-----------------|


                                                                       
-----------------|------------0----|-----------------|----------------|
-----------------|--2----3---------|------------3----|-----------3----|
------------2----|-----------------|-------2---------|------2---------|
-------2---------|-----------------|--0--------------|----------------|
-----------------|-----------------|-----------------|----------------|
--3--------------|-----------------|-----------------|----------------|


                                                                    
----------------|----------------|----------------|----------------|
-----------3----|-----------3----|-----------3----|-----------3----|
------2---------|------2---------|------4---------|------4---------|
----------------|----------------|----------------|----------------|
----------------|----------------|----------------|----------------|
----------------|----------------|----------------|----------------|


                                                                    
----------------|----------------|----------------|----------------|
-----------3----|-----------3----|-----------2----|-----------2----|
------4---------|------4---------|------2---------|------2---------|
----------------|----------------|----------------|----------------|
----------------|----------------|----------------|----------------|
----------------|----------------|----------------|----------------|


                                                                           
----------------|----------------|--2------------|--14~-13~-14~-13~-14~---|
-----------2----|-----------2----|--2------------|------------------------|
------2---------|------2---------|--2------------|------------------------|
----------------|----------------|---------------|------------------------|
----------------|----------------|---------------|------------------------|
----------------|----------------|---------------|------------------------|


                                                                       
------------------|----------------|-----------------|----------------|
--15--------14----|--12~-----------|------------3----|-----------3----|
------------------|----------------|-------2---------|------2---------|
------------------|----------------|--0--------------|----------------|
------------------|----------------|-----------------|----------------|
------------------|----------------|-----------------|----------------|


                                                                    
----------------|----------------|----------------|----------------|
-----------3----|-----------3----|-----------3----|-----------3----|
------2---------|------2---------|------4---------|------4---------|
----------------|----------------|----------------|----------------|
----------------|----------------|----------------|----------------|
----------------|----------------|----------------|----------------|


                                                                    
----------------|----------------|----------------|----------------|
-----------3----|-----------3----|-----------2----|-----------2----|
------4---------|------4---------|------2---------|------2---------|
----------------|----------------|----------------|----------------|
----------------|----------------|----------------|----------------|
----------------|----------------|----------------|----------------|


                                                                    
----------------|----------------|--17~-----------|----------------|
-----------2----|-----------2----|----------------|----------------|
------2---------|------2---------|----------------|----------------|
----------------|----------------|--16~-----------|--12~-----------|
----------------|----------------|--16~-----------|--14~-----------|
----------------|----------------|--17~-----------|--14~-----------|


                
--------------||
--------------||
--------------||
--------------||
--------------||
--------------||
Comments