Radiohead - Wolf At The Door Chords & Tabs

 

Wolf At The Door Chords & Tabs

Radiohead Chords & Tabs

Version: 1 Type: Bass Tab 0 ratings
1 star 2 stars 3 stars 4 stars 5 stars
comments

Wolf At The Door Bass Tab

Standard Tuning

Intro:
G|----------------------------------||
D|----------------------------------||
A|-------------------------------1/5||
E|--3~---5~--7~--7----5~-----3~-----||

Verse:
G|----------------|----------------|--------|----------------||
D|----------------|-------------x7-|-------5|----------------||
A|-5~---5--0h5----|-5~---5---0h5--5|--------|----------------||
E|----------------|----------------|-3~-----|x3~-----1~------||

G|----------------||
D|---9--7-6/5-7/5~||
A|-0--------------||
E|----------------||

G|----------------|----------------|---------|-------------||
D|----------------|------------5-7-|------5--|-------7-----||
A|-5~---5--0h5----|-5~---5--0h5----|-------5-|---3-5-------||
E|----------------|----------------|-3~------|3------------||

G|----------------||
D|---7~----7/5----||
A|----------------||
E|-5~---------5-5-||

Chorus:
G|----------------|----------------|----------------|----------------||
D|----------------|----------------|----8h9-8h9--9-9|-9-9-8h9-8h9----||
A|----------------|---------------7|----------------|----------------||
E|-10----10---10--|-10----10---10--|5-7-------------|------------5-7-||

G|----------------|----------------|----------------|----------------||
D|----------------|----------------|----------------|----------------||
A|-----5h7--------|------5h7-------|-4---4---6---7--|--5---5--5---5-5||
E|5--------5--5---|--5--------7-5--|----------------|----------------||
[ Tab from: http://www.guitartabs.cc/tabs/r/radiohead/wolf_at_the_door_btab.html ]
Interlude:
G|----------------|----------------|--------------|----------------||
D|----------------|----------------|--------------|----------------||
A|----------------|----------------|--------------|----------------||
E|10-10-x10--10-10|-8--8--x8--10-8-|-6-6--6--6-6--|-5-5--5--5-3-5--||

G|----------------|----------------|--------------|----------------||
D|------------12--|-----------10---|--------------|----------------||
A|----------------|----------------|--------------|----------------||
E|-10-10-x10----10|-8--8--x8---10-8|-6-6--6--6-6--|-5-5--5--5-3-5--||

G|------------------||
D|-------7~-----7---||
A|----------------5-||
E|-5--5-----5--5----||

G|----------------|--------------------|--------------|----------------||
D|----------------|------10---10-12-10-|-----x8~------|----------------||
A|----------------|--------------------|--------------|----------------||
E|10-10-x10--8--10|-8--8----8----------|-6-6------4--6|-5-5--5--5-3-5--||

Verse 2:
G|----------------|----------------|--------|----------------||
D|----------------|-5--7--8--10--12|---5~---|----------5~--5~||
A|----------------|----------------|--------|----------------||
E|----------------|----------------|-3~--3-5|3/8\3---3-------||

G|-----------||
D|---6/5-7/5~||
A|0~---------||
E|-----------||
 
G|----------------|----------------|---------|-------------||
D|----------------|------------5--7|-9-10----|---5~-----5~-||
A|-5~-5--0h5-5-0h5|-5-0h5-5--7-----|---------|-------------||
E|----------------|----------------|---------|3~---5\3-----||

G|----------------||
D|---7~----7/5----||
A|----------------||
E|-5~---------7-5-||

Outro:
G|----------------|----------------|----------------||
D|--------12----12|----------------|----------------||
A|----------------|----------------|----------------||
E|-10--10-----10--|------7~--------|------3~--------||
Comments