Radiohead - True Love Waits Chords & Tabs

 

True Love Waits Chords & Tabs

Radiohead Chords & Tabs

Version: 2 Type: Tab 0 ratings
1 star 2 stars 3 stars 4 stars 5 stars
comments

True Love Waits Tab

TRUE LOVE WAITS
Radiohead - I might be wrong Live recordings

Tabbed by: Rodrigo Chaires (rchaires@hotmail.com)

This is a great, beautiful acoustic number by Thom. I think the tab is kinda exactly, but if
you find any mistake or if you have any suggestions, please tell me.
You gotta find out the strumming, but it's quite easy.

INTRO 

E----0-----0---|--0-----0---|--0-----0--|--6---6--I
B---0h1---0h1--|-0h1---0h1--|-0h1---0h1-|--4---4--I
G----0-----0---|--0-----0---|--2-----2--|--5---5--I
D----2-----2---|--2-----2---|--2-----2--|--X---X--I
A----3-----3---|--2-----2---|--0-----0--|--6---6--I
E----X-----X---|--0-----0---|--0-----0--|--4---4--I


VERSE 

E----0-----0---|--0-----0---|--0-----0--|--4---4--I
B---0h1---0h1--|-0h1---0h1--|-0h1---0h1-|--4---4--I
G----0-----0---|--0-----0---|--2-----2--|--5---5--I
D----2-----2---|--2-----2---|--2-----2--|--6---6--I
A----3-----3---|--2-----2---|--0-----0--|--6---6--I
E----X-----X---|--0-----0---|--0-----0--|--4---4--I

E----0-----0---|--0-----0---|--0-----0--|--6---6--I
B---0h1---0h1--|-0h1---0h1--|-0h1---0h1-|--4---4--I
G----0-----0---|--0-----0---|--2-----2--|--5---5--I
D----2-----2---|--2-----2---|--2-----2--|--X---X--I
A----3-----3---|--2-----2---|--0-----0--|--6---6--I
E----X-----X---|--0-----0---|--0-----0--|--4---4--I


CHORUS

E---0---0---0--|--0---0--0--|-----0-----|----3----I
B--0h1--1---1--|-0h1--1--0--|----0h1----|----1----I
G---0---0---0--|--0---0--0--|-----2-----|----0----I
D---2---3---0--|--2---3--2--|-----2-----|----0----I
A---3---3---2--|--3---3--2--|-----0-----|----2----I
E---X---X---3--|--X---X--0--|-----0-----|----3----I


VERSE 2 (2 times)

Measure 1
E----0---3---1---0----0---3---1---0---|
B---0h1--1---1---1---0h1--1---1---1---|
G----0---0---0---0----0---0---0---0---|
D----2---2---2---2----2---2---2---2---|
A----3---3---3---3----3---3---3---3---|
E----X---X---X---X----X---X---X---X---|

Measure 2
E----0---3---1---0----0---3---1---0---|
B---0h1--1---1---1---0h1--1---1---1---|
G----0---0---0---0----0---0---0---0---|
D----2---2---2---2----2---2---2---2---|
A----2---2---2---2----2---2---2---2---|
E----0---0---0---0----0---0---0---0---|

Measure 3
E----0---3---1---0----0---3---1---0---|
B---0h1--1---1---1---0h1--1---1---1---|
G----2---2---2---2----2---2---2---2---|
D----2---2---2---2----2---2---2---2---|
A----0---0---0---0----0---0---0---0---|
E----0---0---0---0----0---0---0---0---|

Measure 4
E---6---6--I
B---4---4--I
G---5---5--I
D---X---X--I
A---6---6--I
E---4---4--I

[ Tab from: http://www.guitartabs.cc/tabs/r/radiohead/true_love_waits_tab_ver_2.html ]
CHORUS
				  2 times		
			        /  /  /  / 	
E---0---0---0--|--0---0--0--|--0---3--1--0--|--0---3--1--0--|--0---3---I
B--0h1--1---1--|-0h1--1--1--|-0h1--1--1--1--|-0h1--1--1--1--|-0h1--1---I
G---0---0---0--|--0---0--0--|--2---2--2--2--|--0---0--0--0--|--0---0---I
D---2---3---0--|--2---3--2--|--2---2--2--2--|--0---0--0--0--|--0---0---I
A---3---3---2--|--3---3--2--|--0---0--0--0--|--2---2--2--2--|--2---2---I
E---X---X---3--|--X---X--0--|--0---0--0--0--|--3---3--3--3--|--3---3---I


SOLO

Measure 1
E----0---3---1---0----0---3---1---0---|
B---0h1--1---1---1---0h1--1---1---1---|
G----0---0---0---0----0---0---0---0---|
D----2---2---2---2----2---2---2---2---|
A----3---3---3---3----3---3---3---3---|
E----X---X---X---X----X---X---X---X---|

Measure 2
E----0---3---1---0----0---3---1---0---|
B---0h1--1---1---1---0h1--1---1---1---|
G----0---0---0---0----0---0---0---0---|
D----2---2---2---2----2---2---2---2---|
A----2---2---2---2----2---2---2---2---|
E----0---0---0---0----0---0---0---0---|

Measure 3
E----0---3---1---0----0---3---1---0---|
B---0h1--1---1---1---0h1--1---1---1---|
G----2---2---2---2----2---2---2---2---|
D----2---2---2---2----2---2---2---2---|
A----0---0---0---0----0---0---0---0---|
E----0---0---0---0----0---0---0---0---|

Measure 4
E--3---/--6--/--3--I
B-0h1--/--4--/--1--I
G--0---/--5--/--0--I
D--0---/--6--/--0--I
A--2---/--6--/--2--I
E--3---/--4--/--3--I


VERSE 3 (2 TIMES)

Measure 1
E----0---3---1---0----0---3---1---0---|
B---0h1--1---1---1---0h1--1---1---1---|
G----0---0---0---0----0---0---0---0---|
D----2---2---2---2----2---2---2---2---|
A----3---3---3---3----3---3---3---3---|
E----X---X---X---X----X---X---X---X---|

Measure 2
E----0---3---1---0----0---3---1---0---|
B---0h1--1---1---1---0h1--1---1---1---|
G----0---0---0---0----0---0---0---0---|
D----2---2---2---2----2---2---2---2---|
A----2---2---2---2----2---2---2---2---|
E----0---0---0---0----0---0---0---0---|

Measure 3
E----0---3---1---0----0---3---1---0---|
B---0h1--1---1---1---0h1--1---1---1---|
G----2---2---2---2----2---2---2---2---|
D----2---2---2---2----2---2---2---2---|
A----0---0---0---0----0---0---0---0---|
E----0---0---0---0----0---0---0---0---|

Measure 4
E---6---6--I
B---4---4--I
G---5---5--I
D---6---6--I
A---6---6--I
E---4---4--I



CHORUS 
				  2 times         2 times		
			        /  /  /  /      /   /  / /	
E---0---0---0--|--0---0--0--|--0---3--1--0--|--0---3--1--0--I
B--0h1--1---1--|-0h1--1--1--|-0h1--1--1--1--|-0h1--1--1--1--I
G---0---0---0--|--0---0--0--|--2---2--2--2--|--0---0--0--0--I
D---2---3---0--|--2---3--2--|--2---2--2--2--|--0---0--0--0--I
A---3---3---2--|--3---3--2--|--0---0--0--0--|--2---2--2--2--I
E---X---X---3--|--X---X--0--|--0---0--0--0--|--3---3--3--3--I


FINAL CHORUS
				            2 times         		
			                  /  /  /  /      
E--0--3-1-0--0--0--|--0--3-1-0--0--0--|--0---3--1--0--|--0---3--1---|--0--I
B-0h1-1-1-1--1--1--|-0h1-1-1-1--1--1--|-0h1--1--1--1--|-0h1--1--1---|--1--I
G--0--0-0-0--0--0--|--0--0-0-0--0--0--|--2---2--2--2--|--0---0--0---|--0--I
D--2--2-2-2--3--0--|--2--2-2-2--3--2--|--2---2--2--2--|--0---0--0---|--2--I
A--3--3-3-3--3--2--|--3--3-3-3--3--2--|--0---0--0--0--|--2---2--2---|--3--I
E--X--X-X-X--X--3--|--X--X-X-X--X--0--|--0---0--0--0--|--3---3--3---|--0--I
Comments