Radiohead - True Love Waits Chords & Tabs

 

True Love Waits Chords & Tabs

Radiohead Chords & Tabs

Version: 1 Type: Tab 0 ratings
1 star 2 stars 3 stars 4 stars 5 stars
comments

True Love Waits Tab

Radiohead - True Love Waits (live)

This is the tab for the keyboard bit in true love waits(live). I trascribed 
it by ear, so it may not be 100%, but its nvery very close. Its a git to play coz
its realy fast, but if you can do it, it sounds ace. Class tune, cant wait for a 
studio version. Enjoy.......
[ Tab from: http://www.guitartabs.cc/tabs/r/radiohead/true_love_waits_tab.html ]
E|-------------------------------------------------------------------------------|
B|-------------------------------------------------------------------------------|
G|-7-5--------5-7-5--------5-9-5--------5-9-5--------5-7-5---------5-7-5---------|
D|----5-3-3-5------5-3-3-5------5-3-3-5------5-3-3-5-------5-3-3-5-------5-3-3-5-|
A|-------------------------------------------------------------------------------|
E|-------------------------------------------------------------------------------|

E|--------------------------------|
B|--------------------------------|
G|-8-7------------8-7-----------8-|
D|----10-8-6-8-10---10-8-6-8-10---|
A|--------------------------------|
E|--------------------------------|

Repeat forever

Chris Traverse

Http://www.void.musicpage.com

and

Http://www.radioleg.tk
Comments