Radiohead - There There Chords & Tabs

 

There There Chords & Tabs

Radiohead Chords & Tabs

Version: 3 Type: Tab 0 ratings
1 star 2 stars 3 stars 4 stars 5 stars
comments

There There Tab

   
“There There” (studio version)
Radiohead
from “Hail to the Theif”
tabbed by arlen b, 04/05/03
webpage: www.geocities.com/kingoftheeskimos

key:
/ - slide up
\ - slide down
b - bend note
p - pull off

standard tuning

intro (w/ variation):
  Bm7
e----------0-2------------2-0---0-2--------------
B------0-------0------0------0-------------------
G----2---2----------2---2-----2------------------
D---0--------------0-----------------------------
A-2--------------2-------------------------------
E------------------------------------------------

verse (w/ variation):
  Bm7                          (G    D5/F#  Em) x2
e----------0-2---------3--2--0-------------------
B------0-------0---------------------------------
G----2---2-----------2----------4------2---------
D---0---------------0-----------0------0----5----
A-2---------------2-------------x------x----2----
E-------------------------------3------2----0----
in pitch dark i go walking in your landscape
broken branches trip me as i speak

chorus:
  A    Dmaj7/F#       (G    D5/F#  Em) x2
e------------------------------------------------
B-2------2-----3---2-----------------------------
G-2------2-----2---2---4------2------------------
D-2------0-----0---0---0------0----5-------------
A-0------x-----x---x---x------x----2-------------
E--------2-----2---2---3------2----0-------------
just cos you feel it doesn’t mean it’s there
[ Tab from: http://www.guitartabs.cc/tabs/r/radiohead/there_there_tab_ver_3.html ]
outro intro: (palm mute, alternating emphasis from lower notes to higher notes with each chord):
e------------------------------------------------
B------------------------------------------------
G-------5----------------------------------------
D--7----7--5-------------------------------------
A--9----5--7--7-7-5/7\5-/9\7--5/7\5-/9\7--5/7\5--
E--7-------5--0-0-0-0-0--0-0--0-0-0--0-0--0-0-0--

outro main chords:
 Bm    Dm6  Amadd9   Em
e-7-----7-----7------7----------------------------
B-0-----6-----x------0----------------------------
G-7-----x-----5------0----------------------------
D-0-----7-----7------5----------------------------
A-x-----5-----0------7----------------------------
E-7------------------0----------------------------

outro lead:
e------7-------7-------7-------7-------7-------7--
B----------------------------------------6-------5
G----7---7---7---7---7---7---7---7----------------
D------------------------------------7-------7----
A----------------------------------5-------5------
D--7-------7-------7-------7----------------------

e------7-------7-------7-------7-------7----------
B------------------------0-------0-------0--------
G--------5-------4--------------------------------
D----7-------7------------------------------------
A--0-------0---------7-------7-------7------------
D------------------0-------0-------0--------------
why so green and lonely?

e------7-------7-------7---------------------7----
B----------------------------------------------6--
G----7---7---7---7---7---7------------------------
D------------------------------------------7------
A--------------------------7-7-7-7-7-7-6-5--------
D--7-------7-------7------------------------------

e--------------------7------------------------------------
B--------------------------------------/10-/8--/10-10-/8-8
G----------------------5----------------------------------
D---------------------------------------------------------
A--7-7-7-7-7-6-5-3p0-----7-6-5-4-3-0-0--------------------
D---------------------------------------------------------
we are accidents waiting to happen

repeat till end.
Comments