Radiohead - The Tourist Chords & Tabs

 

The Tourist Chords & Tabs

Radiohead Chords & Tabs

Version: 1 Type: Bass Tab 0 ratings
1 star 2 stars 3 stars 4 stars 5 stars
comments

The Tourist Bass Tab

Song: "The Tourist"
by RADIOHEAD
from the album: "OK Computer"
written by: Radiohead
tabbed by: Guido Comparato 

 This is one of my favorites songs by radiohead
 
 Intro
G|---------------------------------------------|
D|---------------------------------------------|
A|------2------2-------------------------------|
E|--------------------2--------------4---------|

 Verse ("It barks at no else but me..."
G|-----------------------------------------------|
D|-----------------------------------------------|
A|------2----------------------------------------|
E|--------------------2------(/5)------4---------| repeat until
[ Tab from: http://www.guitartabs.cc/tabs/r/radiohead/the_tourist_btab.html ]
 Chorus ("Hey, man, slow down...")
G|--------------------------------------------------------|
D|------------2-2--------2-2--------2-2-------------------|
A|----2-----2-----2----2-----0----2-----------------------|
E|--------------------------------------2--3--4--5--------|

 Solo Guitar Part 
G|-----------------------------------------------|
D|-----------------------------------------------|
A|------2----------------------------------------|
E|--------------------2----------------5---------| 

 Outro
G|-----------------------------------------------------------------------|
D|--------------------------------------------------------------ding!----|
A|--2-----2---2-----2---2-----2---2-----2---2-----2---2-----2------------|
E|------0---0-----0---0-----0---0-----0---0-----0---0-----0---0----------|

 Listen to the song for the rythm...
 corrections, comments or anything else to comparato@fcmail.com

 Bye bye...
Comments