Radiohead - The Bends Chords & Tabs

 

The Bends Chords & Tabs

Radiohead Chords & Tabs

Version: 1 Type: Bass Tab 0 ratings
1 star 2 stars 3 stars 4 stars 5 stars
comments

The Bends Bass Tab

Artist: Radiohead
Title: The Bends
Album: The Bends

Tabbed by Camello (chrismellon@hotmail.com)


Intro (also Chorus):
G|-------------------------------|
D|-------------------------------|
A|-5-5-5-3-2-3---2--3--2-3-2-----|
E|-------------3-------------3-0-|

G|----------------------0-2-0---|
D|--------------------2-------2-|
A|-5-5-5-3-2-3---2--3-----------|
E|-------------3----------------|

G|------------------------------|
D|------------------------------|
A|-5-5-5-3-2-3---2--3-2-3-2-----|
E|-------------3------------3-0-|

G|-----/2-0----------/4---------------|
D|----------4-------------------------|
A|-5-5--------5--3-------3--2-3-2-----|
E|-----------------3--------------3-0-|

Verses:
G|-----------------------------|
D|-----------------------------|
A|-------------2-3--3---3--3---|
E|-0--0-2-3--3--------3------3-|

G|-------------------------------------|
D|-------------------------------------|
A|---------------3--3-2-3-3--2-3-2-----|
E|-0--0-5-3--3-0-------------------3-0-|
[ Tab from: http://www.guitartabs.cc/tabs/r/radiohead/the_bends_btab.html ]
Guitar fill part:
G|--------------------------3-0-3-0-7-5-4---|
D|------------------------3---------------5-|
A|------------------3-3-5-------------------|
E|-5-5-0-3-4-5-3-0--------------------------|

Verses:
G|---------------------------------------------------|
D|-2----2------4-5----5-5--------------------------5-|
A|----2---2---------5------5-3----3-3----3-5-7-7-7---|
E|----------0-------------------3------3-------------|

G|-----------------------------------------------------|
D|-2----2------5h7p5----5-/7-5-------------------------|
A|----2---2-----------7--------3----3-3----3-2-3-2-----|
E|----------0---------------------3------3---------3-0-|

Chorus:
G|------------------------0-2-0---|
D|----------------------2-------2-|
A|-5-5-5-3-2---3---2--3-----------|
E|-----------3---3----------------|

G|-------/2-0---------/4--------------|
D|------------4-----------------------|
A|-5-5-5--------5-3-------3-2-3-2-----|
E|------------------3-------------3-0-|

Bridge One:
G|------------------------------------|
D|------------------------------------|
A|-0-0--0-0-0--0-0--0-0-0-------------|
E|-------------------------0-0--0-0-0-|

G|--------------------------|
D|--------------------------|
A|-0-0--0-0-0--0-0--0-0-0-2-|
E|--------------------------|

G|---------|
D|---------| 
Comments