Radiohead - Talk Show Host Chords & Tabs

 

Talk Show Host Chords & Tabs

Radiohead Chords & Tabs

Version: 3 Type: Tab

Talk Show Host Tab

Author/Artist: Radiohead
Title: Talk Show Host
Transcribed by: Jon
Email: PearlJam134@aol.com

I couldn't get the background guitar work (I think its just palm muting with
one or two chords thrown in at the end). Here's the main guitar, its good to
my knowledge :D

-----3-3-3-3----3-3-3-3--3-3-3-3--3-3-3-3--3-3-3-3--3-3-3-3-------------------|
-----4-4-3-1----4-4-3-1--4-4-3-1--4-4-3-1--4-4-3-1--4-4-3-1------4------4-----|
-------------------------------------------------------------1-0----1-0-------|
------------------------------------------------------------------------------|
-1-3--------1-3---------------------------------------------------------------|
------------------------------------------------------------------------------|


-3-3-3-3--3-3-3-3--3-3-3-3--3-3-3-3--3-3-3-3--3-3-3-3----------------3-3-3-3--|
-4-4-3-1--4-4-3-1--4-4-3-1--4-4-3-1--4-4-3-1--4-4-3-1------4------4--4-4-3-1--|
-------------------------------------------------------1-0----1-0-------------|
------------------------------------------------------------------------------|
------------------------------------------------------------------------------|
------------------------------------------------------------------------------|

[ Tab from: http://www.guitartabs.cc/tabs/r/radiohead/talk_show_host_tab_ver_3.html ]
-3-3-3-3--3-3-3-3--3-3-3-3--3-3-3-3--3-3-3-3----------------3-3-3-3--3-3-3-3--|
-4-4-3-1--4-4-3-1--4-4-3-1--4-4-3-1--4-4-3-1------4------4--4-4-3-1--4-4-3-1--|
----------------------------------------------1-0----1-0----------------------|
------------------------------------------------------------------------------|
------------------------------------------------------------------------------|
------------------------------------------------------------------------------|


-3-3-3-3--3-3-3-3--3-3-3-3--3-3-3-3--3-3-3-3----------------3-3-3-3--3-3-3-3--|
-4-4-3-1--4-4-3-1--4-4-3-1--4-4-3-1--4-4-3-1------4------4--4-4-3-1--4-4-3-1--|
----------------------------------------------1-0----1-0----------------------|
------------------------------------------------------------------------------|
------------------------------------------------------------------------------|
------------------------------------------------------------------------------|


---------------3-3-3-3--3-3-3-3-----------------------------------------------|
-----4------4--4-4-3-1--4-4-3-1-----------------------------------------------|
-1-0----1-0-------------------------------------------------------------------|
------------------------------------------------------------------------------|
------------------------------------------------------------------------------|
------------------------------------------------------------------------------|