Radiohead - Talk Show Host Chords & Tabs

 

Talk Show Host Chords & Tabs

Radiohead Chords & Tabs

Version: 2 Type: Tab 0 ratings
1 star 2 stars 3 stars 4 stars 5 stars
comments

Talk Show Host Tab

   
-------------------------------------------------------------------------------
			     Talk Show Host - Radiohead
-------------------------------------------------------------------------------
Tabbed by: Eneli
Email: metallsiil_@hotmail.com

Tuning: regular

Intro:
e|---------------------------------------------------------------------------|
B|-------8-8-8-8---------8-8-8-8---------------------------------------------|
G|-------8-8-7-5---------8-8-7-5---------------------------------------------|
D|---------------------------------------------------------------------------|
A|---------------------------------------------------------------------------|
E|--6-8-------------6-8------------------------------------------------------|
[ Tab from: http://www.guitartabs.cc/tabs/r/radiohead/talk_show_host_tab_ver_2.html ]
Verse:
e|---------------------------------------------------------------------------|
B|-------8-8-8-8---------8-8-8-8---------8-8-8-8---------8-8-8-8-------------|
G|-------8-8-7-5---------8-8-7-5---------8-8-7-5---------8-8-7-5-------------|
D|---------------------------------------------------------------------------|
A|---------------------------------------------------------------------------|
E|---------------------------------------------------------------------------|


e|---------------------------------------------------------------------------|
B|---------------------------------------------------------------------------|
G|-----------8/7-------------8/7---------------------------------------------|
D|-------6-5-------------6-5-------------------------------------------------|
A|---------------------------------------------------------------------------|
E|---------------------------------------------------------------------------|

| /  slide up
| \  slide down
| h  hammer-on
| p  pull-off
| ~  vibrato
| +  harmonic
| x  Mute note
===============================================================================
Comments