Radiohead - Talk Show Host Chords & Tabs

 

Talk Show Host Chords & Tabs

Radiohead Chords & Tabs

Version: 3 Type: Bass Tab 0 ratings
1 star 2 stars 3 stars 4 stars 5 stars
comments

Talk Show Host Bass Tab

Radiohead
Talk Show Host

So many people have tabbed this incorrectly and it's starting to get on my nerves.

Chorus:

G-----------------------------------|
D-6------------6--------------------|
A-----6-7-8--------6-7-86-------1/3-|
E-------------------------8-6-3-----|

Verse P1:

G-------------|
D-----8-------|
A-8h10-10-----|
E---------8-8-|

Bridge to Chorus:

G----------------|
D-8/10-8-6-5---5-|
A------------6---|
E----------------|

Synth Break 1:

G---------------------|
D---------------------|
A-/6--6-6-6-6/10---10-|
E---------------------|

Verse P2:
[ Tab from: http://www.guitartabs.cc/tabs/r/radiohead/talk_show_host_btab_ver_3.html ]
G-5p3---5-------------    -5p3-----------------|
D----5p3---3-55--3-55-    ----5p3--------------|
A---------------------    -------3-------------|
E--------------------- OR ----------1-33--1-33-|
They're the same, but it's up to you

Synth Break 2:

G------------------------------------------------|
D------------------------------------------------|
A-6--6-6-6/10--10-10-10---------6/8--8-8-8-6h8-6-|
E-----------------------6--6-6-6-----------------|

G--------------------------------------|
D-6--------------8-6-------------------|
A-----6-7-8--6-8-------6-7-86-------1/-|
E-----------------------------8-6-3----|

Structure:

0:32  Chorus
0:43  Rest
0:53  Verse P1
1:13  Bridge to Chorus
1:16  Chorus
1:27  Rest
1:32  Synth Break 1
1:36  Verse P1
1:48  Verse P2
2:10  Chorus
2:21  Verse P2
2:26  Synth Break 2
2:37  Verse P2
2:48  Synth Break 2
2:58  Verse P2
3:20  Chorus 2
3:31  Verse P2
3:42  Chorus 2
3:52  Verse P2
to fade out
Comments