Radiohead - Talk Show Host Chords & Tabs

 

Talk Show Host Chords & Tabs

Radiohead Chords & Tabs

Version: 2 Type: Bass Tab 0 ratings
1 star 2 stars 3 stars 4 stars 5 stars
comments

Talk Show Host Bass Tab

Radiohead
"Talk Show Host"

Play once at start of each verse:
E------------------------------------------------------------------
A--1--3------------------------------------------------------------
D------------------------------------------------------------------
G------------------------------------------------------------------

At "Birds" play twice. Followed by fill 1.
E------------------------------------------------------------------
A------------------------------------------------------------------
D-----1-2-3--------------------------------------------------------
G--1---------------------------------------------------------------

Fill 1:
E--------3---------------------------------------------------------
A------3---1-3-----------------------------------------------------
D--3-1-------------------------------------------------------------
G------------------------------------------------------------------

Played during second verse:
E--3-s-6---9-9-----------------------------------------------------
A------------------------------------------------------------------
D------------------------------------------------------------------
G------------------------------------------------------------------
[ Tab from: http://www.guitartabs.cc/tabs/r/radiohead/talk_show_host_btab_ver_2.html ]
Second chorus:
E------------------------------------------------------------------
A------------------------------------------------------------------
D-----1-2-3-3s3p1--------------------------------------------------
G--1---------------------------------------------------------------

Synth break 1:
E--------3---------------------------------------------------------
A--3-s6------------------------------------------------------------
D------------------------------------------------------------------
G------------------------------------------------------------------

"You want me..."
E-------------3-3--------------------------------------------------
A--3-3-1-1-3-------------------------------------------------------
D------------------------------------------------------------------
G------------------------------------------------------------------

Main Synth Break:
E------------------------------------------------------------------
A-------------------------1-1-111-1--------------------------------
D--1-1-111-1-S/5-5-555-5------------3-3-333-3----------------------
G------------------------------------------------------------------

Ending:
E------------------------------------------------------------------
A------3-----------------------------------------------------------
D--3-1-------------------------------------------------------------
G------------------------------------------------------------------

author: Adam Lutz 
Comments