Radiohead - Talk Show Host Chords & Tabs

 

Talk Show Host Chords & Tabs

Radiohead Chords & Tabs

Version: 1 Type: Bass Tab 0 ratings
1 star 2 stars 3 stars 4 stars 5 stars
comments

Talk Show Host Bass Tab

Radiohead
"Talk Show Host"

Play once at start of each verse:
G------------------------------------------------------------------
D------------------------------------------------------------------
A--1--3------------------------------------------------------------
E------------------------------------------------------------------

At "Birds" play twice. Followed by fill 1.
G--1---------------------------------------------------------------
D-----1-2-3--------------------------------------------------------
A------------------------------------------------------------------
E------------------------------------------------------------------

Fill 1:
G------------------------------------------------------------------
D--3-1-------------------------------------------------------------
A------3---1-3-----------------------------------------------------
E--------3---------------------------------------------------------

Played during second verse:
G------------------------------------------------------------------
D------------------------------------------------------------------
A------------------------------------------------------------------
E--3-s-6---9-9-----------------------------------------------------
[ Tab from: http://www.guitartabs.cc/tabs/r/radiohead/talk_show_host_btab.html ]
Second chorus:
G--1---------------------------------------------------------------
D-----1-2-3-3s3p1--------------------------------------------------
A------------------------------------------------------------------
E------------------------------------------------------------------

Synth break 1:
G------------------------------------------------------------------
D------------------------------------------------------------------
A--3-s6------------------------------------------------------------
E--------3---------------------------------------------------------

"You want me..."
G------------------------------------------------------------------
D------------------------------------------------------------------
A--3-3-1-1-3-------------------------------------------------------
E-------------3-3--------------------------------------------------

Main Synth Break:
G------------------------------------------------------------------
D--1-1-111-1-S/5-5-555-5------------3-3-333-3----------------------
A-------------------------1-1-111-1--------------------------------
E------------------------------------------------------------------

Ending:
G------------------------------------------------------------------
D--3-1-------------------------------------------------------------
A------3-----------------------------------------------------------
E------------------------------------------------------------------

author: Adam Lutz (strings put in the right order: Bill Fumerola)

Comments