Radiohead - Street Sprit (fade Out) Riff Chords & Tabs

 

Street Sprit (fade Out) Riff Chords & Tabs

Radiohead Chords & Tabs

Version: 1 Type: Tab 0 ratings
1 star 2 stars 3 stars 4 stars 5 stars
comments

Street Sprit (fade Out) Riff Tab

#----------------------------------PLEASE NOTE---------------------------------#
#This file is the author's own work and represents their interpretation of the #
#song. You may only use this file for private study, scholarship, or research. #
#------------------------------------------------------------------------------#
I don't think the other tabs of this song are completely correct so this is my version. I've also added what I think are the lyrics.

Artist: Radiohead.
Song: Street Sprit (Fade Out).
Tabbed by: John Garry.
[ Tab from: http://www.guitartabs.cc/tabs/r/radiohead/street_sprit_fade_out_riff_tab.html ]
Riff 1:
:-----0-------0-------0-----------
:---------3-------1-------0-------
:-------2---2---2---2---2---2---2-
:---2-------------------------2---
:-0-------------------------------
:---------------------------------

Riff 2:
:-----0-------0-------0-----------
:---------3-------1-------0-------
:-------0---0---0---0---0---0---0-
:---2-------------------------2---
:---------------------------------
:-0-------------------------------

Riff 3:
:-----0-------0-------0-----------
:---------3-------1-------0-------
:-------0---0---0---0---0---0---0-
:---2-------------------------2---
:-3-------------------------------
:---------------------------------
Comments