Radiohead - Street Spirit Chords & Tabs

 

Street Spirit Chords & Tabs

Radiohead Chords & Tabs

Version: 4 Type: Tab 0 ratings
1 star 2 stars 3 stars 4 stars 5 stars
comments

Street Spirit Tab

this is my first tab hope its ok........

e|----0---------0-----------0-----------------|
b|--------3-----------1-----------0-----------|
g|--2---2----2-----2-----2-----2-----2--------|
d|--------------------------------------2--0--|
a|0-------------------------------------------|
e|--------------------------------------------|

[ Tab from: http://www.guitartabs.cc/tabs/r/radiohead/street_spirit_tab_ver_4.html ]
e|------0-----------0-----------0---------------|
b|------------3-----------1-----------0---------|
g|---0-----0-----0-----0-----0-----0-----0------|
d|------------------------------------------2--0|
a|----------------------------------------------|
e|0---------------------------------------------|

e|------0-----------0-----------0-----------------|
b|------------3-----------1-----------0-----------|
g|---0-----0-----0-----0-----0-----0-----0--------|
d|------------------------------------------2--0--|
a|3-----------------------------------------------|
e|------------------------------------------------|

reapeat for whole song.......


well there it is hope its ok has anyody got the tabs for KARMA POLICE please e-mail them 
to me benhellen@hotmail.com
Comments