Radiohead - Street Spirit Chords & Tabs

 

Radiohead Chords & Tabs

Version: 1 Type: Tab 1 rating
1 star 2 stars 3 stars 4 stars 5 stars
comments

Street Spirit Tab

Hi my name is Matt and this is my tab for Radioheads Street Spirit 
(fade out) This is one of my favorite songs by radiohead and this 
is how you play the rythym guitar from it. It's rather easy once 
you get it down, but also rather nice sounding.
[ Tab from: http://www.guitartabs.cc/tabs/r/radiohead/street_spirit_tab.html ]
                                          "Then Fade out again"         
E---||-----0-------0-------0-----------||-----0-------0-------0---------
B---||---------3-------1-------0-------||---------3-------1-------0-----
G---||-------2---2---2---2---2---2---2-||---0---0---0---0---0---0---0---
D---||---2-------------------------2---||-------------------------------
A---||-0-------------------------------||-3-----------------------------
E---||---------------------------------||-------------------------------
                                                                        

                                                                        
E-----------0-------0-------0-----------||------------------------------
B---------------3-------1-------0-------||------------------------------
G-----0---0---0---0---0---0---0---0---0-||------------------------------
D---2-------------------------------2---||------------------------------
A---------------------------------------||------------------------------
E-------0-------------------------------||------------------------------
                                                                        

See that wasn't so hard. Anyway, that's the only 2 rythym riffs 
throughout the song. If you like it, dont like or you have 
questions, corrections, or anything, e-mail me at 
Wesborland632@aol.com 
                            Matt

Comments