Radiohead - Street Spirit Chords & Tabs

 

Street Spirit Chords & Tabs

Radiohead Chords & Tabs

Version: 2 Type: Bass Tab 0 ratings
1 star 2 stars 3 stars 4 stars 5 stars
comments

Street Spirit Bass Tab

   
"Street Spirit (fade out)" by Radiohead
amlutz@csbsju.edu

verse
        (a)
----------------------------------------------------
----------------------------------------------------
----------------------------------------------------
----5--------5-------(0)-------5----------5---------
[ Tab from: http://www.guitartabs.cc/tabs/r/radiohead/street_spirit_btab_ver_2.html ]
pre chorus
        (e)
----------------------------(9)---------------------
----------------------------------------------------
----7--------7--------7---------7---------7---------
----------------------------------------------------

chorus
        (c)                     (e)                     (a)
----------------------------------------------------
----------------------------------------------------
---3------3-------7------7------7-------------------
---------------------------------------5------5-----   
Comments