Radiohead - Street Spirit Chords & Tabs

 

Street Spirit Chords & Tabs

Radiohead Chords & Tabs

Version: 1 Type: Bass Tab 1 rating
1 star 2 stars 3 stars 4 stars 5 stars
comments

Street Spirit Bass Tab

Song: Street Spirit (Fade Out)
by RADIOHEAD
fromt the album: "The Bends"
written by: Radiohead
tabbed by: Guido Comparato 

 The previous tab in the archive (you find it in this file) was correct
 but too confused, I think that this one is easier to understand...

 for the rythm look at the lyrics above the tab.
 the bass is not loud and sometimes it's hard to distinguish from the guitar, 
 so forgive me if I added or forgot some notes... :-)

 "..and faaaaade ooooout agaaaaaaaaain... and faaaaaaade out..."
G|--------------------------------------------------------------|
D|--------------------------------------------------------------|
A|-------3-------------------------------------3----------------|
E|---------------0---------5-----------------------------0------|

G|--------------------------------------------------------------------------------------|
D|--------------------------------------------------------------------------------------|
A|--------------------------------------------------------------------------------------|
E|-5----------------5------------------------------5------------------------------5-----|

G|-------------------------------------------------------------------------|
D|-------------------------------------------------------------------------|
A|-------------------------------------------------------------------------|
E|-0---------------------------------0------------------5------------5-----|

G|-----------------------------------------------------------------------------------|
D|-----------------------------------------------------------------------------------|
A|-------3-------------------------------------------3-------------------------------|
E|---------------0---------5----------5------------------------0---------5--------5--|
[ Tab from: http://www.guitartabs.cc/tabs/r/radiohead/street_spirit_btab.html ]
 "ahhhhhhhhhhhhhhh ahhhhhhhhhhhhhh ahhhhhhhhhh......."
G|-----------------------------------------------------------------|
D|-----------------------------------------------------------------|
A|-3-3-3-3-3-3-3-3-7-7-7-7-7-7-7-7---------------------------------|
E|---------------------------------5-5-5-5-5-5-5-5-5-5-5-5-5-5-5-5-| (*)

G|--------------------------------------------------------------------------------------------|
D|--------------------------------------------------------------------------------------------|
A|--------------------------------------------------------------------------------------------|
E|--5-----------------------------------------------------------------------------------------|

G|--------------------------------------------------------------------------------------------|
D|--------------------------------------------------------------------------------------------|
A|--------------------------------------------------------------------------------------------|
E|-0--------------------------------0------------------------------------------5--------------|
 
G|-----------------------------------------------------------------|
D|-----------------------------------------------------------------|
A|-3-3-3-3-3-3-3-3-7-7-7-7-7-7-7-7---------------------------------|
E|---------------------------------5-5-5-5-5-5-5-5-5-5-5-5-5-5-5-5-| reapeat until

G|-----------------------------------------------------------------|
D|-----------------------------------------------------------------|
A|-3-3-3-3-3-3-3-3-7-7-7-7-7-7-7-7---------------------------------|
E|---------------------------------5-5-5-5-5-5-5-5-5-5-5-5-5-5-5-5-|

G|-----------------------------------------------------------------|
D|-----------------------------------------------------------------|
A|-3-3-3-3-3-3-3-3-7-7-7-7-7-7-7-7---------------------------------|
E|---------------------------------5-------------------------------|

 (*) = probabily Colin playes the chorus differently but this one sounds great too, 
 try to play E|-5-5-5-5-5-5-5-3-5-5-5-5-5-5-5-3-| to make it more interesting.

Comments