Radiohead - Sit Down Stand Up Chords & Tabs

 

Sit Down Stand Up Chords & Tabs

Radiohead Chords & Tabs

Version: 1 Type: Tab 0 ratings
1 star 2 stars 3 stars 4 stars 5 stars
comments

Sit Down Stand Up Tab

Sit Down, Stand Up
by Radiohead


Standard tuning

This is a piano song, but this sounds pretty good on guitar.

Intro/verse

E---------------|
B--------6------|
G----6-5---6-5--|
D--3------------|
A---------------|
E---------------|

^That riff is played several times.
[ Tab from: http://www.guitartabs.cc/tabs/r/radiohead/sit_down_stand_up_tab.html ]
Here's the main thing they play during the verse and "raindrops" part.

E-------------------|
B-------------------|
G-------------------|
D--10-----8----6----|
A---8-----6----4----|
E-------------------|

note: they play these many times. You'll have to figure out the rhythm.

I think that's pretty much it.
Comments