Radiohead - Scatterbrain Chords & Tabs

 

Scatterbrain Chords & Tabs

Radiohead Chords & Tabs

Version: 4 Type: Tab 0 ratings
1 star 2 stars 3 stars 4 stars 5 stars
comments

Scatterbrain Tab

   
Radiohead - Scatterbrain
    
     c      Bm       Am      G      F#m          E        Fill #1  
e|-----0-|-------|-------|-------|-------|---------------|---0---|
B|-------|-----3-|-----1-|-----0-|-------|-------------0-|-3---0-|
G|---0---|-------|-------|-------|-----2-|-----1-----2---|-------|
D|-------|---4---|---2---|---0---|-------|---------------|-------|
A|-3-----|-2-----|-0-----|-------|---4---|---2-----2-----|-------|
E|-------|-------|-------|-3-----|-2-----|-0-----0-------|-------|
   
      Riff 1              RIff 2           
e|-----0-----0-2-1-|-----0-----0-----| 
B|-------3-2-------|-----------------| 
G|-----------------|-0-----------0-0-| 
D|---0-------------|---2---2-0-------| 
A|-----------------|-----2-----------| 
E|-3---------------|-----------------| 

INTRO - c Bm Am G (x2)
VERSE - c Bm Am G F#m E (x4) 
play fill #1 after Am in third repeat (play F#m after, not G)
then: riff 1, riff 2, riff 1
then back to C Bm Am G F#m E [x4] (with guitar two - pt 1, pt 2, pt 3, then pt 1) 
RIFF 3 (gtr.1) and RIFF 4 (gtr.2, starts on pt.2 of riff 3)
[ Tab from: http://www.guitartabs.cc/tabs/r/radiohead/scatterbrain_tab_ver_4.html ]
    c     Bm    Am     G    F#m      E
e|-12-8-|-10-7-|-8-5-|-7-3-|-5-2-|-3-0-5-2-|
B|------|------|-----|-----|-----|---------| gtr.2 pt.1
G|------|------|-----|-----|-----|---------|
D|------|------|-----|-----|-----|---------|
A|------|------|-----|-----|-----|---------|
E|------|------|-----|-----|-----|---------|
    c     Bm    Am     G    F#m      E
e|-12-8-|-10-7-|-8-5-|-7-3-|-11-8-|-12-8-11-|
B|------|------|-----|-----|------|---------| gtr.2 pt.2
G|------|------|-----|-----|------|---------|
D|------|------|-----|-----|------|---------|
A|------|------|-----|-----|------|---------|
E|------|------|-----|-----|------|---------|
    c     Bm     Am     G     F#m       E       
e|-12-8-|-10-12-|-8-5-|-8-10-|-14-11-|-15-8-15-|
B|------|-------|-----|------|-------|---------|gtr. 2 pt. 3
G|------|-------|-----|------|-------|---------|
D|------|-------|-----|------|-------|---------|
A|------|-------|-----|------|-------|---------|
E|------|-------|-----|------|-------|---------|
  
 RIFF 3  gtr .1   (x1)      pt.1       
e|---------------------------------2---|
B|---------------3---2-----3---------2-|
G|-----5---4-----------------4---2-----|
D|-------------3---3-----4-------------|
A|---5---5---1---------2-------0-------|
E|-3-----------------------------------|
 
pt.2  G        A#      Bm        A  (x7, on 7th time, end on B)
e|-------------------------2-------5-2-----|
B|---------------3---2-------3---------3---|
G|-----5---4---------------------2---------|
D|-------------3---3-----4-----------------|
A|---5---5---1---------2-------0-----------|
E|-3---------------------------------------|
  
(RIFF 4) G    pt.1  A        Bm  (x2)  
e|-------12-10------------------12-10-|
B|----12---------------------12-------|
G|-12---------------------12----------|
D|------------------------------------|
A|------------------------------------|
E|------------------------------------|

pt.2 G           A             Bm       (x5, then play the A part of pt2)
e|-------12-10--------12-10-------12-10--14-10-9/10-|
B|----12--------10-12----------12-------------------|
G|-12-----------------------12----------------------|
D|--------------------------------------------------|
A|--------------------------------------------------|
E|--------------------------------------------------|
Comments