Radiohead - Sail To The Moon Chords & Tabs

 

Sail To The Moon Chords & Tabs

Radiohead Chords & Tabs

Version: 2 Type: Tab 0 ratings
1 star 2 stars 3 stars 4 stars 5 stars
comments

Sail To The Moon Tab

Sail To The Moon
by Radiohead

The other tab had a good idea on the chords, this is the picking that he does in the song.

Intro(from other tab. they did a good job.)

e|-4---4--4--4--5--4--3-1-0---0--0--0--0--0--0-|
B|-2---2--2--2--2--2--1-----1-1--1--1--1--1--1-|
G|-2---2--2--2--2--2--0-------2--2--2--2--2--2-|
D|-2---2--2--2--2--2--2-------3--3--3--3--3--3-|
A|-0---0--0--0--0--0--3-------3--3--3--3--3--3-|
E|--------------------0-------0--0--0--0--0--0-|

e|-4--4--4--4--4--5--4--3-1-0-0--0--0--0--0--0-|
B|-2--2--2--2--2--2--2--1-----1--1--1--1--1--1-|
G|-2--2--2--2--2--2--2--0-----2--2--2--2--2--2-|
D|-2--2--2--2--2--2--2--2-----3--3--3--3--3--3-|
A|-0--0--0--0--0--0--0--3-----3--3--3--3--3--3-|
E|----------------------0-----0--0--0--0--0--0-|

e|-4--4--4--4--4--5--4--3-1-0-0--0--0--0--0--0-|
B|-2--2--2--2--2--2--2--1-----1--1--1--1--1--1-|
G|-2--2--2--2--2--2--2--0-----2--2--2--2--2--2-|
D|-2--2--2--2--2--2--2--2-----3--3--3--3--3--3-|
A|-0--0--0--0--0--0--0--3-----3--3--3--3--3--3-|
E|----------------------0-----0--0--0--0--0--0-|

Verse

Riff 1

E--4-5-7-0-----------------|
B----------3-5-3-5-6-5-3-5-|
G--------------------------|
D--------------------------|
A--------------------------|
E--------------------------|
[ Tab from: http://www.guitartabs.cc/tabs/r/radiohead/sail_to_the_moon_tab_ver_2.html ]
Riff 2

E----------------------|
B--6-5-3-5-3-5-6-5-3-5-|
G----------------------|
D----------------------|
A----------------------|
E----------------------|

Riff 1 repeated
Riff 2 repeated

Riff 3

E-------------------------------------------------|
B--2-4-4-2-2-4-5-7-7-5-1-3-3-5/3/1-------------0--|
G----------------------------------5/4/2-0-0-0----|
D-------------------------------------------------|
A-------------------------------------------------|
E-------------------------------------------------|

Riff 4

E-----------------------|
B--3-1-1-1-3-1-3-1-3-1--|
G-----------------------|
D-----------------------|
A-----------------------|
E-----------------------|

Riff 5(this is played over riff 4 near the end)

E----0---------------------0-------------------0---------------------|
B--5----several times----6----several times--5----couple more times--|
G--------------------------------------------------------------------|
D--------------------------------------------------------------------|
A--------------------------------------------------------------------|
E--------------------------------------------------------------------|

I think that's pretty much it. You'll just have to figure out how to put them all 
Good luck.
Comments