Radiohead - Polyethylene Chords & Tabs

 

Polyethylene Chords & Tabs

Radiohead Chords & Tabs

Version: 2 Type: Tab 0 ratings
1 star 2 stars 3 stars 4 stars 5 stars
comments

Polyethylene Tab

e------------------------------------------------------------------------------------------------------|
B------------------------------------------------------------------------------------------------------|
G-14-14-14-14--14--12--10---9--7--5--7--9--10--9p7---7-9p7---7-9-9-9-9-9-9-9b-9b-9b-9b--7h9-9p7---7-9--|
D--------------------------------------------------9-------9-------------------------------------9-----|
A------------------------------------------------------------------------------------------------------|
E------------------------------------------------------------------------------------------------------|
[ Tab from: http://www.guitartabs.cc/tabs/r/radiohead/polyethylene_tab_ver_2.html ]
e---------------------------------------------------------------------------------------------------------------|
B-------------------------------------------------------------------------------------14-15--17-17-17-17-17-17--|
G--9-9-9-9-9-9-9b-9b-9b---7-9-9-9--9-9-9--10--9--10--12--10--12--14--12--14--14/-14-----------------------------|
D--------------------------9------------------------------------------------------------------------------------|
A---------------------------------------------------------------------------------------------------------------|
E---------------------------------------------------------------------------------------------------------------|

e-------------------------------------------------------------------------------------------------------|
B-17-17--17b-17b-17b--15h17-15\14-----------------------------------------------------------------------|
G-----------------------------------2-2-2-2--2-0---------------------------------2-0-------------2h3----|
D------------------------------------------------3-2-0---0-2-3--3p2---2h3-3p2--0-----3-2-0-----2-----3--|
A------------------------------------------------------3-----------------------------------3-0----------|
E-------------------------------------------------------------------------------------------------------|
Comments