Radiohead - Planet Telex Chords & Tabs

 

Planet Telex Chords & Tabs

Radiohead Chords & Tabs

Version: 1 Type: Tab 0 ratings
1 star 2 stars 3 stars 4 stars 5 stars
comments

Planet Telex Tab

#-----------------------------PLEASE NOTE-------------------------------------#
#This OLGA file is the author's own work and represents their interpretation  #
#of the song. You may only use this file for private study, scholarship, or   #
#research. Remember to view this file in Courier, or some other monospaced    #
#font. See http://www.olga.net/faq/ for more information.                     #
#-----------------------------------------------------------------------------#

Date: Sun, 19 Oct 1997 21:19:25 PDT
From: steve zodiac 
Subject: r/radiohead/planet_telex.tab

[lyrics removed -- see diet-olga policy]

try this.  it's not the real way, but it sounds a lot better than the 
real way:

INTRO:
-0-0-0-0-0-0-0-0-0-0-0-0-0-0-2-2-2-2-2-2-0-0-0-0-0-0-0-0 repeats
-0-0-0-0-0-0-0-0-0-0-0-0-0-0-3-3-3-3-3-3-1-1-1-1-1-1-1-1 4 times
-1-1-1-1-1-1-2-2-2-2-2-2-2-2-2-2-2-2-2-2-2-2-2-2-2-2-2-2 *note: this
-2-2-2-2-2-2-2-2-2-2-2-2-2-2-2-2-2-2-2-2-2-2-2-2-2-2-2-2 is a studio
-2-2-2-2-2-2-2-2-2-2-2-2-2-2-2-2-2-2-2-2-0-0-0-0-0-0-0-0 effect, but  
-0-0-0-0-0-0-0-0-0-0-0-0-0-0---------------------------- if you don't 
                                                         have a studio
                                                         then fake it.
[ Tab from: http://www.guitartabs.cc/tabs/r/radiohead/planet_telex_tab.html ]
verse:  (let the A-string ring out)
-0--0-X-0-0--0-X-0-X-0-X-0-2--2-X-2-0--0-0-0-0-0-0-0-
-0--0-X-0-4--4-X-4-X-4-X-0-2--2-X-2-4--4-4-4-4-4-4-4-
-4--4-X-4-4--4-X-4-X-4-X-4-4--4-X-4-4--4-4-4-4-4-4-4-
-4--4-X-4-4--4-X-4-X-4-X-4-4--4-X-4-4--4-4-4-4-4-4-4-
-2--2-X-2-2--2-------2---2-2--2-X-2-2--2-2-2-2-2-2-2-
-----------------------------------------------------

-0--0-X-0-0--0-X-0-X-0-X-0-2--2-X-2-0--0-0-0-0-0-0-0-
-0--0-X-0-4--4-X-4-X-4-X-0-2--2-X-2-4--4-4-4-4-4-4-4-
-4--4-X-4-4--4-X-4-X-4-X-4-4--4-X-4-4--4-4-4-4-4-4-4-
-4--4-X-4-4--4-X-4-X-4-X-4-4--4-X-4-4--4-4-4-4-4-4-4-
-2--2-X-2-2--2-------2---2-2--2-X-2-2--2-2-2-2-2-2-2-
-----------------------------------------------------

-0--0-X-0-0--0-X-0-X-0-X-0-0--0-X-0-0--0-0-0-0-0-0-0-
-0--0-X-0-4--4-X-4-X-4-X-0-2--2-X-2-4--4-4-4-4-4-4-4-
-2--2-X-2-2--2-X-2-X-2-X-2-2--2-X-2-2--2-2-2-2-2-2-2-
-2--2-X-2-2--2-X-2-X-2-X-2-2--2-X-2-2--2-2-2-2-2-2-2-
-0--0-X-0-0--0-------0---0-0--0-X-0-0--0-0-0-0-0-0-0-
-----------------------------------------------------

chorus:  your guess is as good as mine.  I just play:

--0----0---0---0---          --0---
--0----0---0---0---          --0---
--9----8---7---8---    or    --8---  there's no basis on the album
--9----8---7---8---          --9---  for this, it's just fun 
--7----6---5---6---          --9---  sometimes...
-------------------          --7---

then second verse (I'll transcribe the second guitar when I have time), 
second chorus, and intro again for "why can't you forget..."

(and so forth.  it's not as if you can't just pick up the CD cover and 
read them for yourself.)

Is it that wrong?  respond and offer different playing suggestions 
please.  ricky lee at captain_zodiac@hotmail.com
Comments