Radiohead - Permanent Daylight Chords & Tabs

 

Permanent Daylight Chords & Tabs

Radiohead Chords & Tabs

Version: 1 Type: Bass Tab 0 ratings
1 star 2 stars 3 stars 4 stars 5 stars
comments

Permanent Daylight Bass Tab

   
Artist: Radiohead
Song: Permanent Daylight
Album: My Iron Lung EP (1994)
Tuning: E-A-D-G
Notes:
~ - Let Ring


Intro:
G|--------6-6------6-------6-----6-------6-----|
D|--6---6----6-6-6---6-6-6-----6---6-6-6---6---|
A|----4----------------------4-----------------|
E|---------------------------------------------|

G|---------------------------------------------|
D|---------------------------------------------|
A|---------------------------------------------|
E|-3-3-3-3-3-3-3-3-3-3-3-3-3-3-3-3-3-3-3-3-3-3-|

G|-------6-6------6-------6-----6-------6-----|
D|-----6----6-6-6---6-6-6-----6---6-6-6---6---|
A|---4----------------------4-----------------|
E|--------------------------------------------|

G|---------------------------------------------|
D|---------------------------------------------|
A|-3-3-3-3-3-3-3-3-3-3-3-3-3-3-3-3-3-3-3-3-3-3-|
E|---------------------------------------------|

G|---------------------------------------------|
D|---------------------------------------------|
A|-4-4-4-4-4-4-4-4-4-4-4-4-4-4-4-4-4-4-4-4-4-4-|
E|---------------------------------------------|

G|-------------------------------------------------------------------------|
D|-------------------------------------------------------------------------|
A|-5-5-5-5-5-5-5-5-5-5-5-5-5-5-5-5-5-5-5-5-5-5-5-5-5-5-5-5-5-5-5-5-5-5-5-5-|
E|-------------------------------------------------------------------------|

G|-------------------|
D|-------------------|
A|-4-4-4-4-4-4-4-4-4-|
E|-------------------|


Verse:
G|---------------------------------------------|
D|---------------------------------------------|
A|---------------------------------------------|
E|-3-3-3-3-3-3-3-3-3-3-3-3-3-3-3-3-3-3-3-3-3-3-|

G|-------6-6------6-------6-----6-------6-----|
D|-----6----6-6-6---6-6-6-----6---6-6-6---6---|
A|---4----------------------4-----------------|
E|--------------------------------------------|
[ Tab from: http://www.guitartabs.cc/tabs/r/radiohead/permanent_daylight_btab.html ]
G|---------------------------------------------|
D|---------------------------------------------|
A|---------------------------------------------|
E|-3-3-3-3-3-3-3-3-3-3-3-3-3-3-3-3-3-3-3-3-3-3-|

G|-------6-6------6-------6-----6-------6-----|
D|-----6----6-6-6---6-6-6-----6---6-6-6---6---|
A|---4----------------------4-----------------|
E|--------------------------------------------|



Chorus:
G|---------------------------------------------|
D|---------------------------------------------|
A|-3-3-3-3-3-3-3-3-3-3-3-3-3-3-3-3-3-3-3-3-3-3-|
E|---------------------------------------------|

G|---------------------------------------------|
D|---------------------------------------------|
A|-4-4-4-4-4-4-4-4-4-4-4-4-4-4-4-4-4-4-4-4-4-4-|
E|---------------------------------------------|

G|-------------------------------------------------------------------------|
D|-------------------------------------------------------------------------|
A|-5-5-5-5-5-5-5-5-5-5-5-5-5-5-5-5-5-5-5-5-5-5-5-5-5-5-5-5-5-5-5-5-5-5-5-5-|
E|-------------------------------------------------------------------------|

G|-------------------------------------------------------------------------|
D|-------------------------------------------------------------------------|
A|-5-5-5-5-5-5-5-5-5-5-5-5-5-5-5-5-5-5-5-5-5-5-5-5-5-5-5-5-5-5-5-5-5-5-5-5-|
E|-------------------------------------------------------------------------|

G|-------------------------------------------------------------------------|
D|-------------------------------------------------------------------------|
A|-5-5-5-5-5-5-5-5-5-5-5-5-5-5-5-5-5-5-5-5-5-5-5-5-5-5-5-5-5-5-5-5-5-5-5-5-|
E|-------------------------------------------------------------------------|

G|-----|
D|-----|
A|--4~-|
E|-----|



Outro:
G|---------------------------------------------|
D|---------------------------------------------|
A|---------------------------------------------|
E|-3-3-3-3-3-3-3-3-3-3-3-3-3-3-3-3-3-3-3-3-3-3-| (x Alot)
 
G|-----------------------------------------------|
D|-----5-------------5------------5-----------5--|
A|---5-------------5------------5-----------5----|  Progressively slow down
E|-3-----3-3-3-3-3------3-3-3-3-----3-3-3-3------|

G|-----|
D|--5~-|
A|-----|
E|-----|
Comments