Radiohead - Paranoid Android Chords & Tabs

 

Paranoid Android Chords & Tabs

Radiohead Chords & Tabs

Version: 2 Type: Tab 0 ratings
1 star 2 stars 3 stars 4 stars 5 stars
comments

Paranoid Android Tab

Hellooooo everyone  this is my first tab and im only 13 so please, be forgiving.  
Anyways, this is a great song... don't give up its worth playing.   This is all i 
feel like doing for now it sounds like there is more than one guitar playing this 
but it sounds fine on one doing this:

e|----------------------------------------------------------
B|---8----8----8-------------3---3---3---3------------------
G|----8----8----8-------------3---3---3--3------------------
D|-----------------------------22--22--22-------------------
A|-----------88---8-00--------------------------------------
E|-88---66-------------66--33-------------------------------
[ Tab from: http://www.guitartabs.cc/tabs/r/radiohead/paranoid_android_tab_ver_2.html ]
e|----------------------------------------------------------
B|-15--15--15--15--15----15---------------------------------
G|---15--15--15--14--12-12--15------------------------------
D|----------------------------------------------------------
A|----------------------------------------------------------
E|----------------------------------------------------------

e|----------------------------------------------------------
B|--3-3-3-3-3-3-4-------------------------------------------
G|---3-3-3-2-0----------------------------------------------
D|----------------------------------------------------------
A|----------------------------------------------------------
E|----------------------------------------------------------

(....please could you stop the noise....)

thats pretty much it... this pretty easy actually but the rest of it is hard
Enjoy
-Merfederf
Comments