Radiohead - Paranoid Android Chords & Tabs

 

Paranoid Android Chords & Tabs

Radiohead Chords & Tabs

Version: 1 Type: Bass Tab 0 ratings
1 star 2 stars 3 stars 4 stars 5 stars
comments

Paranoid Android Bass Tab

Title: Paranoid Android
Artist: Radiohead
Album: OK COmputer]
Tabbed: Bugman bugman184@hotmail.com]




Chorus:

The bass comes in just before the chorus, on the last beat of the
verse.


   (Bar)(Chorus)(Matches in with Kick Drum)
G|----|-------------------------------|------------------------|
D|7-8-|---------------------------7-8-|--------------------7-8-|
A|----|10---10-10-----10--10--10------|8---8-8----8--8--8------|
E|----|-------------------------------|------------------------|


G|-----------------------------|
D|---------------------8-7-----|
A|7---7-7-----7--7---------8-9-|
E|-----------------------------|


G|-------------------------------|------------------------|
D|---------------------------7-8-|--------------------7-8-|
A|10---10-10-----10--10--10------|8---8-8----8--8--8------|
E|-------------------------------|------------------------|


G|-----------------------------|--------------------------|
D|---------------------8-7-----|--------------------------|
A|7---7-7----7--7----------7---|7---7-7------------5---4--|
E|-----------------------------|--------------------------|


Verse 2:

G|-------------------|---------------------|----------------------|
D|-------------------|---------------------|----------------------|
A|3---------1----3---|--------0----1-------|--------0------1------|
E|-------------------|1--------------------|3---------------------|


G|-------------------|---------------------|----------------------|
D|-------------------|---------------------|----------------------|
A|-------------------|--------0----1-------|----------------------|
E|0------------------|3--------------------|0---------------------|

                                                        (x 2 2/3)


Middle:

(Part 1)

G|-----------------------------|-----------------------------|
D|-----------------------------|-----------------------------|
A|--------3------------3-3-5---|--------3------------3-3-5-5-|
E|5---5-5---5--4--4--4---------|5---5-5---5--4--4--4---------|

                                              (Straight Up)
G|-----------------------------|----------------------------------|
D|-----------------------------|----------------------14-15-------|
A|--------3------------3-3-5---|--------3------------/------13-14-|
E|5---5-5---5--4--4--4---------|5---5-5---5--4--4-----------------|


(Part 2)
[ Tab from: http://www.guitartabs.cc/tabs/r/radiohead/paranoid_android_btab.html ]
G|-----------------------------------|
D|-----------------------13-14-15----|
A|15--15-15----------11-----------13-|
E|----------13-14-15-----------------|


G|----------------------------------------|
D|-----------------------15-14-13-12------|
A|15--15-----------10-11------------13-14-|
E|--------12-13-14------------------------|


G|-----------------------------------|
D|--------------------------13---15--|
A|15--15----------10-11x-11----------|
E|-------12-13-14--------------------|


G|----------------------------------------|
D|----------------------------------------|
A|15--15----------10-11-------------------|
E|-------12-13-14-------8-7--6---\--------|


(Part 3)
  (Tap the A - Sticatto)
G|----------------------------|-----------------------------|
D|----------------------------|-----------------------------|
A|----------------------------|--------3------------3-3-5---|
E|5x--------------------------|5---5-5---5--4--4--4---------|


G|----------------------------|-----------------------------|
D|----------------------------|-----------------------------|
A|--------------------3-5-----|--------3------------3-3-5---|
E|5\-x--------------------3-4-|5---5-5---5--4--4--4---------|


Heavy Part/Solo:

G|----------------------------|-----------------------------|
D|----------------------------|-----------------------------|
A|----------------------------|--------3------------3-3-5---|
E|5\-x------------------------|5---5-5---5--4--4--4---------|


G|----------------------------|-----------------------------|
D|----------------------------|-----------------------------|
A|x---------------------------|--------3------------3-3-5---|
E|----------------------------|5---5-5---5--4--4--4---------|

                  (Slide)
G|------------------------|------------------------|
D|------------------------|------------------------|
A|--------7-------6--/8---|--------7-------6-7-8---|
E|8---8-8-----4-----------|8---8-8-----4-----------|


G|------------------------|-------------------------------|
D|------------------------|-------------------------------|
A|--------7-------6--/8---|--------7----------------------|
E|8---8-8-----4-----------|8---8-8---------8-7--6--5-4----|  (All x 2)

Then The slow, soft middle section. After that, repeat
"Heavy Part/Solo" x 2 to finish out.


Song Format:

Intro
Verse 1
Chorus (Bass comes in here)
Verse 2
Chorus
Middle
Heavy Part/Solo

Soft Section

Heavy Outro

Comments