Radiohead - Optimistic Chords & Tabs

 

Optimistic Chords & Tabs

Radiohead Chords & Tabs

Version: 4 Type: Tab 0 ratings
1 star 2 stars 3 stars 4 stars 5 stars
comments

Optimistic Tab

Optimistic
From the CD “Kid A”
Tabbed by Patrick Vacek with much assistance from Chris Shaw
Tuning: Dropped D

Intro (and outro) - play the whole thing twice, then play the second part again.
e|---------------|---------------|
B|---------------|---------------|
G|---------------|---------------|
D|---7---9---4---|---3---5---4---|
A|---5---5---5---|---5---5---5---|
D|---0---0---0---|---0---0---0---|
[ Tab from: http://www.guitartabs.cc/tabs/r/radiohead/optimistic_tab_ver_4.html ]
Verse
e|-------------------|
B|-------------------|
G|-------------------|
D|---3---2---5---4---|
A|---5---3---7---5---|
D|---0---0---0---0---|

Chorus - play twice
e|---------------------|-------------------|
B|--------------8--7---|-------------------|
G|--7---5---9---7--7---|-------------------|
D|--7---5---9---7--7---|---3---2---5---4---|
A|--5---3---7--(5)(5)--|---5---3---7---5---|
D|--0---0---0--(0)(0)--|---0---0---0---0---|

The bridge after the first chorus is just a muted version of the verse riff.
Comments