Radiohead - Optimistic Chords & Tabs

 

Optimistic Chords & Tabs

Radiohead Chords & Tabs

Version: 2 Type: Tab 0 ratings
1 star 2 stars 3 stars 4 stars 5 stars
comments

Optimistic Tab

   
Optimistic - Radiohead

Drop D

this song really has 2 parts to it.
[ Tab from: http://www.guitartabs.cc/tabs/r/radiohead/optimistic_tab_ver_2.html ]
Part One:
e|-----------------------------------|------------------|
b|-----------------------------------|------------------|
g|.-14----16----11----10---12---11--.|--10---12----11---|
d|.---------------------------------.|------------------|
a|--12----14----9----8----10----9----|--8----10----9----|
d|-----------------------------------|------------------|

Part Two:
e|-----------------------------|
b|-----------------------------|
g|.------7---5--------9---7---.|
d|.---------------------------.|
a|-------5---3--------7---5----|
d|--0-0----------0-0-----------|




Note: Each octave has mult-hits so listen to the song

well that's about it there is a scale in the song but i don't know it and 
Comments