Radiohead - Optimistic Chords & Tabs

 

Optimistic Chords & Tabs

Radiohead Chords & Tabs

Version: 2 Type: Chords 0 ratings
1 star 2 stars 3 stars 4 stars 5 stars
comments

Optimistic Chords

   
#-----------------------------PLEASE NOTE-------------------------------------#
#This OLGA file is the author's own work and represents their interpretation  #
#of the song. You may only use this file for private study, scholarship, or   #
#research. Remember to view this file in Courier, or some other monospaced    #
#font. See http://www.olga.net/faq/ for more information.                     #
#-----------------------------------------------------------------------------#

Date: Wed, 20 Sep 2000 23:44:24 -0400
From: Andrew Prefontaine 
Subject: r/radiohead/optimistic.crd

Optimistic By Radiohead
>From the Album Kid A
Tabbed by Andrew Prefontaine

Here's how the song is supposed to go. The previous tabs of it were
pretty close
but not quite on the mark.

I won't post lyrics with this tab because there seems to be a big stink
about it if
you do.

It's pretty simple, and believe it or not repetitive
Use your own beat style. I only wrote it like this so it would be easy
to understand the dsus4 d dsus4 d part.

standard tuning

Verse:
[ Tab from: http://www.guitartabs.cc/tabs/r/radiohead/optimistic_crd_ver_2.html ]
  d            F?             dsus4       d   
--5---5--5-5---5-5--5--5--5---5---5--5-5--5--5--5-5-5--
--7---7--7-7---6-6--6--6--6---8---8--8-8--7--7--7-7-7--
--7---7--7-7---5-5--5--5--5---7---7--7-7--7--7--7-7-7--
--7---7--7-7---7-7--7--7--7---7---7--7-7--7--7--7-7-7--
--5---5--5-5---8-8--8--8--8---5---5--5-5--5--5--5-5-5--
---------------5-5--5--5--5----------------------------

 F?           C             dsus4 d     dsus4 d  
-5---5--5-5---3--3--3--3----5--5--5-5---5-5-5----
-6---6--6-6---5--5--5--5----8--7--7-7---8-7-7----
-5---5--5-5---5--5--5--5----7--7--7-7---7-7-7----
-7---7--7-7---5--5--5--5----7--7--7-7---7-7-7----
-8---8--8-8---3--3--3--3----5--5--5-5---5-5-5----
-5---5--5-5--------------------------------------

Chorus:
  d           F?           G               d                 
--5---5--5-5--5-5-5--5-5---10--10--10-10---10--10--10-10-10---
--7---7--7-7--6-6-6--6-6---12--12--12-12---10--10--10-10-10---
--7---7--7-7--5-5-5--5-5---12--12--12-12---11--11--11-11-11---
--7---7--7-7--7-7-7--7-7---12--12--12-12---12--12--12-12-12---
--5---5--5-5--8-8-8--8-8---10--10--10-10---12--12--12-12-12---
--------------5-5-5--5-5-------------------10--10--10-10-10---

 F                 C                 dsus4 d     dsus4 d
-8--8--8--8---8----8--8--8--8--8-----5--5--5-5---5-5-5----
-10-10-10-10--10---8--8--8--8--8-----8--7--7-7---8-7-7----
-10-10-10-10--10---9--9--9--9--9-----7--7--7-7---7-7-7----
-10-10-10-10--10---10-10-10-10-10----7--7--7-7---7-7-7----
-8--8--8--8---8----10-10-10-10-10----5--5--5-5---5-5-5----
-------------------8--8--8--8--8--------------------------



And that's it. Repeat as necessary.

Comments