Radiohead - Optimistic Complete Chords & Tabs

 

Optimistic Complete Chords & Tabs

Radiohead Chords & Tabs

Version: 1 Type: Tab 0 ratings
1 star 2 stars 3 stars 4 stars 5 stars
comments

Optimistic Complete Tab

   
Song: Optimistic
Artist: Radiohead
Album: Kid A
Tabbed by -The Tourist-
morningbell@radiohead.zzn.com




Intro
Guitar 1 plays
e|-5--5-7-7-7-2--2-2-2-|-1--1-3-3-3-2--2-2-2-|
B|------0-0-0-3--3-3-3-|-3--3-3-3-3-3--3-3-3-|
G|-5--5-7-7-7-2--2-2-2-|-3--3-2-2-2-2--2-2-2-|
D|---------------------|------------0--0-0-0-|
A|---------------------|---------------------|
D|---------------------|---------------------|

  |__ x 2 and then the second part once more__|

Guitar 2 plays
e |-0--0-0-0-0-0--0-0-0-|-0--0-0-0-0-0--0-0-0-|
B |-0--0-0-0-0-0--0-0-0-|-0--0-------0--0-0-0-|
G |-5--5-7-7-7-2--2-2-2-|-3--3-x-x-x-4--4-4-4-|
D |-7--7-9-9-9-4--4-4-4-|-3--3-5-5-5-4--4-4-4-|
A |---------------------|---------------------|
D?|---------------------|---------------------|

  |__ x 2 and then the second part once more__|

Verse
Guitar 1 with light distortion
e |-------------------------------|
B |-----0--0-0-0-0-----0--0-0-0-0-|
G |-----7--5-5-5-5-----9--7-7-7-7-|
D |-----x--x-x-x-x-----x--x-x-x-x-|
A |-----8--7-7-7-7-----10-9-9-9-9-|
D?|-0-0------------0-0------------|

I think that the second guitar does a palm muting on the 6th string
e|--------------|
B|--------------|
G|--------------|
D|--------------|
A|-x-x--x-x-x-x-|
D|-x-x--x-x-x-x-|
[ Tab from: http://www.guitartabs.cc/tabs/r/radiohead/optimistic_complete_tab.html ]
Chorus
Guitar 1
e |-------------------------|-----------------|-------------------------------|
B |-10-10-10-10-10-10-10-10-|-8-8-8-8-7-7-7-7-|-----0--0-0-0-0-----0--0-0-0-0-|
G |-7--7--7--7--7--7--7--7--|-7-7-7-7-7-7-7-7-|-----7--5-5-5-5-----9--7-7-7-7-|
D |-7--7--7--7--7--7--7--7--|-7-7-7-7-7-7-7-7-|-----x--x-x-x-x-----x--x-x-x-x-|
A |-------------------------|-----------------|-----8--7-7-7-7-----10-9-9-9-9-|
D?|-------------------------|-----------------|-0-0------------0-0------------|

Guitar Two make this                   On the second and last chorus this part is played
e|------------------------------------|------------------------|---|
B|------------------------------------|-3p1--------------------|---|
G|-------------0-2-3-5-7-9-11vvvvvvvv-|-----3p2vvvvv--0-3-2vvv-|---|
D|-------0-2-3------------------------|------------------------|-0-|
A|-0-2-3------------------------------|------------------------|---|
D|------------------------------------|------------------------|---|

Bridge
Guitar 1
e |-----------------|
B |-x-x-x-x-x-x-x-x-|
G |-x-x-x-x-x-x-x-x-|
D |-x-x-x-x-x-x-x-x-|
A |-x-x-x-x-x-x-x-x-|
D?|-----------------|

Guitar 2
e|------------------------|------------------------|
B|-3p1--------------------|-3p1--------------------|
G|-----3p2vvvvv--0-3-2vvv-|-----3p2vvvvv--0-3-2----|
D|------------------------|---------------------0v-|
A|------------------------|------------------------|
D|------------------------|------------------------|

At the second bridge the guitar 1 plays the verse Riff

Outro: just plays the intro with more energy!!

IT'S ALL! THANKS!
EMAIL ME TO morningbell@radiohead.zzn.com or/and this is my MSN rhcpmatias@hotmail.com
Comments