Radiohead - No Surprises Chords & Tabs

 

No Surprises Chords & Tabs

Radiohead Chords & Tabs

Version: 3 Type: Tab 0 ratings
1 star 2 stars 3 stars 4 stars 5 stars
comments

No Surprises Tab

   
#----------------------------------PLEASE NOTE---------------------------------#
#This file is the author's own work and represents their interpretation of the #
#song. You may only use this file for private study, scholarship, or research. #
#------------------------------------------------------------------------------#
NO SURPRISES
As recorded by Radiohead
(From the 1997 Album OK COMPUTER)

 
 Words and Music by Thomas Yorke, Jonathan Greenwood, Philip Selway,
Colin Greenwood, Edward O'Brien
 

 

Ok, I saw the other versions…this is the right one.

 


Gtr I (E A D G B E) - 'Gtr 1'
Gtr II (E A D G B E) - 'Gtr 2'
Gtr III (E A D G B E) - 'Gtr 3'
Gtr IV (E A D G B E) - 'Gtr 4'
[ Tab from: http://www.guitartabs.cc/tabs/r/radiohead/no_surprises_tab_ver_3.html ]
 Intro
  Q=77
 4/4
  Gtr I
|-14----------14----------|-14-------------------12-|
|-------15----------15----|-------15----------15----|
|----14----14----14----14-|----14----14-12-15-------|
|-------------------------|-------------------------|
|-------------------------|-------------------------|
|-------------------------|-------------------------|
 
 
|-14----------14----------|-14-------------------12-|
|-------15----------15----|-------15----------15----|
|----14----14----14----14-|----14----14-12-15-------|
|-------------------------|-------------------------|
|-------------------------|-------------------------|
|-------------------------|-------------------------|
 
 
||--14------------14------------|-14---------------------------12----||
||o-------15------------15------|-------15----------------15--------o||
||-----14----14------14----14---|----14----14---12---15--------------||
||------------------------------|------------------------------------||
||o-----------------------------|-----------------------------------o||
||------------------------------|------------------------------------||
|
|   Gtr II
||---2-----0--0-0--2-----0--0-0-|--2-----0--0-0--3-3----2----0--0-0--||
||o--3-----3--3-3--3-----3--3-3-|--3-----3--3-3--3-3----3----3--3-3-o||
||---2--2--2--2-2--2--2--2--2-2-|--2--2--2--2-2--0-0----0----0--0-0--||
||---0--0--0--0-0--0--0--0--0-0-|--0--0--0--0-0----------------------||
||o-----------------------------|----------------1-1----1----1--1-1-o||
||------------------------------|------------------------------------||
|
|   Gtr III
||---2-----0--0-0--2-----0--0-0-|--2-----0--0-0--3-3--2-2--0-0--0-0--||
||o--3-----3--3-3--3-----3--3-3-|--3-----3--3-3--3-3--3-3--3-3--3-3-o||
||---2--2--2--2-2--2--2--2--2-2-|--2--2--2--2-2--0-0--0-0--0-0--0-0--||
||---0--0--0--0-0--0--0--0--0-0-|--0--0--0--0-0----------------------||
||o-----------------------------|----------------1-1--1-1--1-1--1-1-o||
||------------------------------|------------------------------------||
 
 
 Verse
|-14------------14------------|-14------------14----------------|
|-------15------------15------|-------15--------------15--------|
|----14----14------14----14---|----14----14------14--------14---|
|-----------------------------|---------------------------------|
|-----------------------------|---------------------------------|
|-----------------------------|---------------------------------|
|
|--2-----0--0-0--2-----0--0-0-|--2-----0--0-0--2-------0-0--0-0-|
|--3-----3--3-3--3-----3--3-3-|--3-----3--3-3--3-------3-3--3-3-|
|--2--2--2--2-2--2--2--2--2-2-|--2--2--2--2-2--2--2----2-2--2-2-|
|--0--0--0--0-0--0--0--0--0-0-|--0--0--0--0-0--0--0----0-0--0-0-|
|-----------------------------|---------------------------------|
|-----------------------------|---------------------------------|
|
|--2-----0--0-0--2-----0--0-0-|--2-----0--0-0--0--0-0--0----0-0-|
|--3-----3--3-3--3-----3--3-3-|--3-----3--3-3--3--3-3--3----3-3-|
|--2--2--2--2-2--2--2--2--2-2-|--2--2--2--2-2--2--2-2--2----2-2-|
|--0--0--0--0-0--0--0--0--0-0-|--0--0--0--0-0--0--0-0--0----0-0-|
|-----------------------------|---------------------------------|
|-----------------------------|---------------------------------|
 
 
|-14------------14--------------|
|-------15------------15--------|
|----12----12------12------12---|
|-------------------------------|
|-------------------------------|
|-------------------------------|
|
|--2-----0--0-0--2-----0-0--0-0-|
|--3-----3--3-3--3-----3-3--3-3-|
|--0--0--0--0-0--0--0--0-0--0-0-|
|-------------------------------|
|--2--2--2--2-2--2--2--2-2--2-2-|
|-------------------------------|
|
|--2-----0--0-0--2-----0----0-0-|
|--3-----3--3-3--3-----3----3-3-|
|--0--0--0--0-0--0--0--0----0-0-|
|-------------------------------|
|--2--2--2--2-2--2--2--2----2-2-|
|-------------------------------|
 
 
|-14------------14------------|-15------------15------------|
|-------15------------15------|-------15------------15------|
|----12----12------12----12---|----16----16------16----16---|
|-----------------------------|-----------------------------|
|-----------------------------|-----------------------------|
|-----------------------------|-----------------------------|
|
|--2-----0--0-0--2-----0--0-0-|--------0--0-0-----0--0------|
|--3-----3--3-3--3-----3--3-3-|--------0--0-0-----0--0------|
|--0--0--0--0-0--0--0--0--0-0-|--------0--0-0-----0--0------|
|-----------------------------|--------2--2-2-----2--2------|
|--2--2--2--2-2--2--2--2--2-2-|--2-----2--2-2--2--2--2------|
|-----------------------------|--0-------------0------------|
|
|--2-----0--0-0--2-----0--0-0-|--0-----0--0-0--0-----0--0-0-|
|--3-----3--3-3--3-----3--3-3-|--0-----0--0-0--0-----0--0-0-|
|--0--0--0--0-0--0--0--0--0-0-|--0-----0--0-0--0-----0--0-0-|
|-----------------------------|--2-----2--2-2--2-----2--2-2-|
|--2--2--2--2-2--2--2--2--2-2-|--2--2--2--2-2--2--2--2--2-2-|
|-----------------------------|-----0-------------0---------|
 
 
|-------------------------------------|
|-15-14-------------------------------|
|-------14------------14-(14)---12----|
|----------14---14h16-----------------|
|-------------------------------------|
|-------------------------------------|
|
|--------0--0-0--------0---0--0--0----|
|--------2--2-2--------3---2--2--2----|
|--------2--2-2--------2---2--2--2----|
|--2-----2--2-2--2-----2---2--2--2----|
|--0-------------0--------------------|
|-------------------------------------|
|
|--0-----0--0-0--0---------0-------0--|
|--2-----2--2-2--3---------2-------3--|
|--2-----2--2-2--2---------2-----2-2--|
|--2--2--2--2-2--2-----2---2-----0-0--|
|-----0----------------0--------------|
|-------------------------------------|
 
 
|-14--------------14--------------|-14-----------------------------12---||
|---------15--------------15------|---------15----------------15--------||
|------14----14--------14----14---|------14----14---12---15-------------||
|---------------------------------|-------------------------------------||
|---------------------------------|-------------------------------------||
|---------------------------------|-------------------------------------||
|
|----------0---------0-----0----0-|----0-----0----0--3-3----2----0--0-0-||
|----------3---------3-----3----3-|----3-----3----3--3-3----3----3--3-3-||
|-------2--2-------2-2--2--2--2-2-|--2-2--2--2--2-2--0-0----0----0--0-0-||
|-------0--0-------0-0--0--0--0-0-|--0-0--0--0--0-0---------------------||
|---------------------------------|------------------1-1----1----1--1-1-||
|---------------------------------|-------------------------------------||
|
|----0-----0----0----0-----0----0-|----0-----0----0--3-3--2-2--0-0--0-0-||
|----3-----3----3----3-----3----3-|----3-----3----3--3-3--3-3--3-3--3-3-||
|--2-2--2--2--2-2--2-2--2--2--2-2-|--2-2--2--2--2-2--0-0--0-0--0-0--0-0-||
|--0-0--0--0--0-0--0-0--0--0--0-0-|--0-0--0--0--0-0---------------------||
|---------------------------------|------------------1-1--1-1--1-1--1-1-||
|---------------------------------|-------------------------------------||
 
 
 Verse
|-14--------------14--------------|-14--------------14--------------|
|---------15--------------15------|---------15--------------15------|
|------14----14--------14----14---|------14----14--------14----14---|
|---------------------------------|---------------------------------|
|---------------------------------|---------------------------------|
|---------------------------------|---------------------------------|
|
|----0-----0---------0-----0------|----0-----0---------0-----0----0-|
|----3-----3---------3-----3------|----3-----3---------3-----3----3-|
|--2-2--2--2-------2-2--2--2------|--2-2--2--2-------2-2--2--2--2-2-|
|--0-0--0--0-------0-0--0--0------|--0-0--0--0-------0-0--0--0--0-0-|
|---------------------------------|---------------------------------|
|---------------------------------|---------------------------------|
|
|----0-----0----0----0-----0----0-|----0-----0----0----0-----0----0-|
|----3-----3----3----3-----3----3-|----3-----3----3----3-----3----3-|
|--2-2--2--2--2-2--2-2--2--2--2-2-|--2-2--2--2--2-2--2-2--2--2--2-2-|
|--0-0--0--0--0-0--0-0--0--0--0-0-|--0-0--0--0--0-0--0-0--0--0--0-0-|
|---------------------------------|---------------------------------|
|---------------------------------|---------------------------------|
 
 
|-14--------------14---------------|
|---------15--------------15-------|
|------12----12--------12----12----|
|----------------------------------|
|----------------------------------|
|----------------------------------|
|
|----0-----0----0----0-----0----0--|
|----3-----3----3----3-----3----3--|
|--0-0--0--0--0-0--0-0--0--0--0-0--|
|----------------------------------|
|--2-2--2--2--2-2--2-2--2--2--2-2--|
|----------------------------------|
|
|----0-----0----0----0-----0----0--|
|----3-----3----3----3-----3----3--|
|--0-0--0--0--0-0--0-0--0--0--0-0--|
|----------------------------------|
|--2-2--2--2--2-2--2-2--2--2--2-2--|
|----------------------------------|
 
 
|-14--------------14--------------|-15------------15----------|
|---------15--------------15------|-------15------------15----|
|------12----12--------12----12---|----16----16------16----16-|
|---------------------------------|---------------------------|
|---------------------------------|---------------------------|
|---------------------------------|---------------------------|
|
|----0-----0----0----0-----0----0-|--------0--0-0-----0--0----|
|----3-----3----3----3-----3----3-|--------0--0-0-----0--0----|
|--0-0--0--0--0-0--0-0--0--0--0-0-|--------0--0-0-----0--0----|
|---------------------------------|--------2--2-2-----2--2----|
|--2-2--2--2--2-2--2-2--2--2--2-2-|--2-----2--2-2--2--2--2----|
|---------------------------------|--0-------------0----------|
|
|----0-----0----0----0-----0----0-|--------0--0-0-----0--0----|
|----3-----3----3----3-----3----3-|--------0--0-0-----0--0----|
|--0-0--0--0--0-0--0-0--0--0--0-0-|--------0--0-0-----0--0----|
|---------------------------------|--------2--2-2-----2--2----|
|--2-2--2--2--2-2--2-2--2--2--2-2-|--2-----2--2-2--2--2--2----|
|---------------------------------|--0-------------0----------|
 
 
|------------------------------------|
|-15-14------------------------------|
|-------14------------14-(14)---12---|
|----------14---14h16----------------|
|------------------------------------|
|------------------------------------|
|
|--------0--0-0--------0---0--0--0---|
|--------2--2-2--------3---2--2--2---|
|--------2--2-2--------2---2--2--2---|
|--2-----2--2-2--2-----2---2--2--2---|
|--0-------------0-------------------|
|------------------------------------|
|
|--0-----0--0-0--0---------0-------0-|
|--2-----2--2-2--3---------2-------3-|
|--2-----2--2-2--2---------2-----2-2-|
|--2--2--2--2-2--2-----2---2-----0-0-|
|-----0----------------0-------------|
|------------------------------------|
 
 
|-14--------------14--------------|-14-----------------------------12---||
|---------15--------------15------|---------15----------------15--------||
|------14----14--------14----14---|------14----14---12---15-------------||
|---------------------------------|-------------------------------------||
|---------------------------------|-------------------------------------||
|---------------------------------|-------------------------------------||
|
|----0-----0----0----0-----0----0-|----0-----0----0--3-3----2----0--0-0-||
|----3-----3----3----3-----3----3-|----3-----3----3--3-3----3----3--3-3-||
|--2-2--2--2--2-2--2-2--2--2--2-2-|--2-2--2--2--2-2--0-0----0----0--0-0-||
|--0-0--0--0--0-0--0-0--0--0--0-0-|--0-0--0--0--0-0---------------------||
|---------------------------------|------------------1-1----1----1--1-1-||
|---------------------------------|-------------------------------------||
|
|----0-----0----0----0-----0----0-|----0-----0----0--3-3--2-2--0-0--0-0-||
|----3-----3----3----3-----3----3-|----3-----3----3--3-3--3-3--3-3--3-3-||
|--2-2--2--2--2-2--2-2--2--2--2-2-|--2-2--2--2--2-2--0-0--0-0--0-0--0-0-||
|--0-0--0--0--0-0--0-0--0--0--0-0-|--0-0--0--0--0-0---------------------||
|---------------------------------|------------------1-1--1-1--1-1--1-1-||
|---------------------------------|-------------------------------------||
 
 
 Chorus
|-14--------------14--------------|-14--------------14--------------|
|---------15--------------15------|---------15--------------15------|
|------14----14--------14----14---|------14----14--------14----14---|
|---------------------------------|---------------------------------|
|---------------------------------|---------------------------------|
|---------------------------------|---------------------------------|
|
| Gtrs II, III
|----0-----0----0----0-----0----0-|----0-----0----0----0-----0----0-|
|----3-----3----3----3-----3----3-|----3-----3----3----3-----3----3-|
|--2-2--2--2--2-2--2-2--2--2--2-2-|--2-2--2--2--2-2--2-2--2--2--2-2-|
|--0-0--0--0--0-0--0-0--0--0--0-0-|--0-0--0--0--0-0--0-0--0--0--0-0-|
|---------------------------------|---------------------------------|
|---------------------------------|---------------------------------|
 
 
|-14--------------14---------------|
|---------15--------------15-------|
|------12----12--------12----12----|
|----------------------------------|
|----------------------------------|
|----------------------------------|
|
|----0-----0----0----0-----0----0--|
|----3-----3----3----3-----3----3--|
|--0-0--0--0--0-0--0-0--0--0--0-0--|
|----------------------------------|
|--2-2--2--2--2-2--2-2--2--2--2-2--|
|----------------------------------|
 
 
|-14--------------14--------------|---------------------------|
|---------15--------------15------|---------------------------|
|------12----12--------12----12---|-16-14-14-12---12-14-14-12-|
|---------------------------------|------------------16-16-14-|
|---------------------------------|---------------------------|
|---------------------------------|---------------------------|
|
|----0-----0----0----0-----0----0-|--------0--0-0-----0--0--0-|
|----3-----3----3----3-----3----3-|--------0--0-0-----0--0--2-|
|--0-0--0--0--0-0--0-0--0--0--0-0-|--------0--0-0-----0--0--2-|
|---------------------------------|--------2--2-2-----2--2--2-|
|--2-2--2--2--2-2--2-2--2--2--2-2-|--2-----2--2-2--2--2--2--0-|
|---------------------------------|--0-------------0----------|
 
 
|-----------------------------------|
|-----------------------------------|
|-(12)--------------12---14-12------|
|-(14)---14---14h16--------------12-|
|-----------------------------------|
|-----------------------------------|
|
|--(0)----0----0-------0--0----0--0-|
|--(2)----2----2-------3--3----2--2-|
|--(2)----2----2-------2--2----2--2-|
|--(2)-2--2-2--2-----2-2--2--2-2--2-|
|--(0)-0----0--------0-------0------|
|-----------------------------------|
 
 
|---------------------------|
|---------------------------|
|-16-14-14-12---12-14-14-12-|
|------------------16-16-14-|
|---------------------------|
|---------------------------|
|
|--------0--0-0-----0--0--0-|
|--------0--0-0-----0--0--2-|
|--------0--0-0-----0--0--2-|
|--------2--2-2-----2--2--2-|
|--2-----2--2-2--2--2--2--0-|
|--0-------------0----------|
 
 
|-------------------------------------|---------------------------|
|-----------------15--------14--------|---------------------------|
|-(12)--------------------------------|-16-14-14-12---12-14-14-12-|
|-(14)-14-14---14------14--------14---|------------------16-16-14-|
|-------------------------------------|---------------------------|
|-------------------------------------|---------------------------|
|
|--(0)-----0----0----0--0-0----0--0-0-|--------0--0-0-----0--0--0-|
|--(2)-----2----2----3--3-3----2--2-2-|--------0--0-0-----0--0--2-|
|--(2)-----2----2----2--2-2----2--2-2-|--------0--0-0-----0--0--2-|
|--(2)--2--2-2--2--2-2--2-2--2-2--2-2-|--------2--2-2-----2--2--2-|
|--(0)--0----0-----0---------0--------|--2-----2--2-2--2--2--2--0-|
|-------------------------------------|--0-------------0----------|
 
 
|-------------------------------|
|-------------------------------|
|-(12)--------------12-14-12----|
|-(14)---14---14h16----------12-|
|-------------------------------|
|-------------------------------|
|
|--(0)----0----0--------0-------|
|--(2)----2----2--------2-------|
|--(2)----2----2--------2-------|
|--(2)-2--2-2--2-----2--2--2----|
|--(0)-0----0--------0-----0----|
|-------------------------------|
 
 
||--14----------14----------|-14-------------------12---||
||o-------15----------15----|-------15----------15-----o||
||-----14----14----14----14-|----14----14-12-15---------||
||--------------------------|---------------------------||
||o-------------------------|--------------------------o||
||--------------------------|---------------------------||
|
||---2-----------2----------|--2--------------------0---||
||o--------3-----------3----|--------3-----------3-----o||
||------2-----2-----2-----2-|-----2-----2--0--3---------||
||--------------------------|---------------------------||
||o-------------------------|--------------------------o||
||--------------------------|---------------------------||
 
 
 Chorus
|-14----------14----------|-14----------14----------|
|-------15----------15----|-------15----------15----|
|----14----14----14----14-|----14----14----14----14-|
|-------------------------|-------------------------|
|-------------------------|-------------------------|
|-------------------------|-------------------------|
|
|--2-----------2----------|--2-----------2----------|
|--------3-----------3----|--------3-----------3----|
|-----2-----2-----2-----2-|-----2-----2-----2-----2-|
|-------------------------|-------------------------|
|-------------------------|-------------------------|
|-------------------------|-------------------------|
 
 
|-14----------14----------|-14----------14----------|
|-------15----------15----|-------15----------15----|
|----12----12----12----12-|----12----12----12----12-|
|-------------------------|-------------------------|
|-------------------------|-------------------------|
|-------------------------|-------------------------|
|
|--2-----------2----------|--2-----------2----------|
|--------3-----------3----|--------3-----------3----|
|-----0-----0-----0-----0-|-----0-----0-----0-----0-|
|-------------------------|-------------------------|
|-------------------------|-------------------------|
|-------------------------|-------------------------|
 
 
|---------------------------|
|---------------------------|
|-16-14-14-12---12-14-14-12-|
|------------------16-16-14-|
|---------------------------|
|---------------------------|
|
|--------0--0-0-----0--0--0-|
|--------0--0-0-----0--0--2-|
|--------0--0-0-----0--0--2-|
|--------2--2-2-----2--2--2-|
|--2-----2--2-2--2--2--2--0-|
|--0-------------0----------|
 
 
|---------------------------------|---------------------------|
|-----------------15------14------|---------------------------|
|-(12)----------------------------|-16-14-14-12---12-14-14-12-|
|-(14)-14-14---14------14------14-|------------------16-16-14-|
|---------------------------------|---------------------------|
|---------------------------------|---------------------------|
|
|--(0)-----0----0----0--0----0--0-|--------0--0-0-----0--0--0-|
|--(2)-----2----2----3--3----2--2-|--------0--0-0-----0--0--2-|
|--(2)-----2----2----2--2----2--2-|--------0--0-0-----0--0--2-|
|--(2)--2--2-2--2--2-2--2--2-2--2-|--------2--2-2-----2--2--2-|
|--(0)--0----0-----0-------0------|--2-----2--2-2--2--2--2--0-|
|---------------------------------|--0-------------0----------|
 
 
|---------------------------------|---------------------------|
|-----------------15------14------|---------------------------|
|-(12)----------------------------|-16-14-14-12---12-14-14-12-|
|-(14)-14-14---14------14------14-|------------------16-16-14-|
|---------------------------------|---------------------------|
|---------------------------------|---------------------------|
|
| Gtr II
|--(0)-----0----0----0--0----0--0-|--------0--0-0-----0--0--0-|
|--(2)-----2----2----3--3----2--2-|--------0--0-0-----0--0--2-|
|--(2)-----2----2----2--2----2--2-|--------0--0-0-----0--0--2-|
|--(2)--2--2-2--2--2-2--2--2-2--2-|--------2--2-2-----2--2--2-|
|--(0)--0----0-----0-------0------|--2-----2--2-2--2--2--2--0-|
|---------------------------------|--0-------------0----------|
|
| Gtr III
|--(0)-----0----0----0--0----0--0-|--------0--0-0-----0--0--0-|
|--(2)-----2----2----3--3----2--2-|--------0--0-0-----0--0--2-|
|--(2)-----2----2----2--2----2--2-|--------0--0-0-----0--0--2-|
|--(2)--2--2-2--2--2-2--2--2-2--2-|--------2--2-2-----2--2--2-|
|--(0)--0----0-----0-------0------|--2-----2--2-2--2--2--2--0-|
|---------------------------------|--0-------------0----------|
 
 
|-------------------------------------|
|-------------------------------------|
|-(12)--------------12---14-12--------|
|-(14)---14---14h16--------------12---|
|-------------------------------------|
|-------------------------------------|
|
|--(0)----0----0-------0--0----0--0---|
|--(2)----2----2-------3--3----2--2---|
|--(2)----2----2-------2--2----2--2---|
|--(2)-2--2-2--2-----2-2--2--2-2--2---|
|--(0)-0----0--------0-------0--------|
|-------------------------------------|
|
|--(0)----0----0-------0--0----0----0-|
|--(2)----2----2-------3--3----2----3-|
|--(2)----2----2-------2--2----2--2-2-|
|--(2)-2--2-2--2-----2-2--2--2-2--0-0-|
|--(0)-0----0--------0-------0--------|
|-------------------------------------|
 
 
|-14--------------14--------------|-14-----------------------------12---||
|---------15--------------15------|---------15----------------15--------||
|------14----14--------14----14---|------14----14---12---15-------------||
|---------------------------------|-------------------------------------||
|---------------------------------|-------------------------------------||
|---------------------------------|-------------------------------------||
|
| Gtrs II, III
|----0-----0----0----0-----0----0-|----0-----0----0--3-3--2-2--0-0--0-0-||
|----3-----3----3----3-----3----3-|----3-----3----3--3-3--3-3--3-3--3-3-||
|--2-2--2--2--2-2--2-2--2--2--2-2-|--2-2--2--2--2-2--0-0--0-0--0-0--0-0-||
|--0-0--0--0--0-0--0-0--0--0--0-0-|--0-0--0--0--0-0---------------------||
|---------------------------------|------------------1-1--1-1--1-1--1-1-||
|---------------------------------|-------------------------------------||
|
| Gtr IV
|---------------------------------|-------------------------------------||
|---------------------------------|-------------------------------------||
|---------------------------------|-------------2----3----2----0----3---||
|---------------------------------|-------------------------------------||
|---------------------------------|-------------------------------------||
|---------------------------------|-------------------------------------||
 
 
 Interlude
|----------------------------------|
|-14----14------15p14--------------|
|---------------------14------14---|
|----14----14------------14--------|
|----------------------------------|
|----------------------------------|
|
|--------0--0-0-----0--0----0--0-0-|
|--------2--2-2-----3--3----2--2-2-|
|--------2--2-2-----2--2----2--2-2-|
|--2-----2--2-2--2--2--2--2-2--2-2-|
|--0-------------0--------0--------|
|----------------------------------|
|
|----------------------------------|
|-^2-------------------------------|
|-^2--2----------------2--2----0---|
|-^2-----2-------2-----2--2----0---|
|-^0--------0----0-----------------|
|----------------------------------|
 
 
|---------------17-15---------|----------------------------------|
|----------15---------15------|-14------------15p14--------------|
|-12-12-15-----------------15-|----14----14---------14------14---|
|-----------------------------|-------14---------------14--------|
|-----------------------------|----------------------------------|
|-----------------------------|----------------------------------|
|
|-----------------------------|--------0--0-0-----0--0----0--0-0-|
|--------3--3-3-----3--3-3--3-|--------2--2-2-----3--3----2--2-2-|
|--------3--3-3-----3--3-3--3-|--------2--2-2-----2--2----2--2-2-|
|--0-----0--0-0--0--0--0-0--0-|--2-----2--2-2--2--2--2--2-2--2-2-|
|-----------------------------|--0-------------0--------0--------|
|--3-------------3------------|----------------------------------|
|
|-----------0----1--0---------|----------------------------------|
|--------3-------------3------|--2----------------------2--------|
|-----3---------------------3-|--2--2----------2-------------2---|
|-----------------------------|--2-----2-------2-----------------|
|-----------------------------|--0--------0----0-----------------|
|--3--------------------------|----------------------------------|
 
 
|---------------17p15------------|
|----------15---------15---------|
|-12-12-15---------------15------|
|--------------------------------|
|--------------------------------|
|--------------------------------|
|
|--------------------------------|
|--------3--3-3--------3--3-3----|
|--------3--3-3--------3--3-3----|
|--0-----0--0-0--0-----0--0-0----|
|------------------------------2-|
|--3-------------3-------------0-|
|
|-----3-----0----1-----0------!0-|
|-----3--3----------------3---!0-|
|-----3-----------------------!0-|
|-----------------------------!2-|
|-----------------------------!2-|
|--3--------------------------!0-|
 
 
|------------------------------|----------------------12------||
|----------------15-12---------|--------13-----15--------15---||
|--------12------------12---14-|-15---------------------------||
|-14--14----14-----------------|------------------------------||
|------------------------------|------------------------------||
|------------------------------|------------------------------||
|
|---------0--0-0-----0--0-0--0-|------------------------------||
|---------0--0-0-----0--0-0--0-|----3-3----3-3----3-3-----3-3-||
|---------0--0-0-----0--0-0--0-|----3-3----3-3----3-3-----3-3-||
|---------2--2-2-----2--2-2--2-|--0-0-0--0-0-0--0-0-0--0--0-0-||
|-(2)-----2--2-2--2--2--2-2--2-|------------------------------||
|-(0)-------------0------------|--3------3------3------3------||
|
|-(0)--------------------------|------------------------------||
|-(0)-----0--------------------|----3------3------3-------3---||
|-(0)-------------0-----0----2-|--3------2------0------3------||
|-(2)----------------4---------|------------------------------||
|-(2)--------2-----------------|------------------------------||
|-(0)--------------------------|------------------------------||
 
 
 Chorus
|-14--------------14--------------|-14--------------14--------------|
|---------15--------------15------|---------15--------------15------|
|------14----14--------14----14---|------14----14--------14----14---|
|---------------------------------|---------------------------------|
|---------------------------------|---------------------------------|
|---------------------------------|---------------------------------|
|
|----0-----0----0----0-----0----0-|----0-----0----0----0-----0----0-|
|----3-----3----3----3-----3----3-|----3-----3----3----3-----3----3-|
|--2-2--2--2--2-2--2-2--2--2--2-2-|--2-2--2--2--2-2--2-2--2--2--2-2-|
|--0-0--0--0--0-0--0-0--0--0--0-0-|--0-0--0--0--0-0--0-0--0--0--0-0-|
|---------------------------------|---------------------------------|
|---------------------------------|---------------------------------|
 
 
|-14--------------14---------------|
|---------15--------------15-------|
|------12----12--------12----12----|
|----------------------------------|
|----------------------------------|
|----------------------------------|
|
|----0-----0----0----0-----0----0--|
|----3-----3----3----3-----3----3--|
|--0-0--0--0--0-0--0-0--0--0--0-0--|
|----------------------------------|
|--2-2--2--2--2-2--2-2--2--2--2-2--|
|----------------------------------|
 
 
|-14--------------14--------------|---------------------------|
|---------15--------------15------|---------------------------|
|------12----12--------12----12---|-16-14-14-12---12-14-14-12-|
|---------------------------------|------------------16-16-14-|
|---------------------------------|---------------------------|
|---------------------------------|---------------------------|
|
|----0-----0----0----0-----0----0-|--------0--0-0-----0--0--0-|
|----3-----3----3----3-----3----3-|--------0--0-0-----0--0--2-|
|--0-0--0--0--0-0--0-0--0--0--0-0-|--------0--0-0-----0--0--2-|
|---------------------------------|--------2--2-2-----2--2--2-|
|--2-2--2--2--2-2--2-2--2--2--2-2-|--2-----2--2-2--2--2--2--0-|
|---------------------------------|--0-------------0----------|
 
 
|----------------------------------|
|-----------------15------14-------|
|-(12)-----------------------------|
|-(14)-14-14---14------14------14--|
|----------------------------------|
|----------------------------------|
|
|--(0)-----0----0----0--0----0--0--|
|--(2)-----2----2----3--3----2--2--|
|--(2)-----2----2----2--2----2--2--|
|--(2)--2--2-2--2--2-2--2--2-2--2--|
|--(0)--0----0-----0-------0-------|
|----------------------------------|
 
 
|---------------------------|
|---------------------------|
|-16-14-14-12---12-14-14-12-|
|------------------16-16-14-|
|---------------------------|
|---------------------------|
|
|--------0--0-0-----0--0--0-|
|--------0--0-0-----0--0--2-|
|--------0--0-0-----0--0--2-|
|--------2--2-2-----2--2--2-|
|--2-----2--2-2--2--2--2--0-|
|--0-------------0----------|
 
 
|-----------------12--------------|---------------------------|
|-------------------------14------|---------------------------|
|-(12)----12----------------------|-16-14-14-12---12-14-14-12-|
|-(14)-14------14------14------14-|------------------16-16-14-|
|---------------------------------|---------------------------|
|---------------------------------|---------------------------|
|
|--(0)-----0----0----0--0----0--0-|--------0--0-0-----0--0--0-|
|--(2)-----2----2----3--3----2--2-|--------0--0-0-----0--0--2-|
|--(2)-----2----2----2--2----2--2-|--------0--0-0-----0--0--2-|
|--(2)--2--2-2--2--2-2--2--2-2--2-|--------2--2-2-----2--2--2-|
|--(0)--0----0-----0-------0------|--2-----2--2-2--2--2--2--0-|
|---------------------------------|--0-------------0----------|
 
 
  H.=H
|------------------------------------|
|------------------------------------|
|-(12)-12-12---------12---14-12------|
|-(14)-14-14---14h16--------------12-|
|------------------------------------|
|------------------------------------|
|
|--(0)-----0----0-------0--0----0--0-|
|--(2)-----2----2-------3--3----2--2-|
|--(2)-----2----2-------2--2----2--2-|
|--(2)--2--2-2--2-----2-2--2--2-2--2-|
|--(0)--0----0--------0-------0------|
|------------------------------------|
 
 
  Q=72
|-14----------14----------|-14--------------------12-|
|-------15----------15----|--------15----------15----|
|----14----14----14----14-|-----14----14-12-15-------|
|-------------------------|--------------------------|
|-------------------------|--------------------------|
|-------------------------|--------------------------|
|
|-^2----------------------|-(2)----------------------|
|-^3----------------------|-(3)----------------------|
|-^2----------------------|-(2)----------------------|
|-^0----------------------|-(0)----------------------|
|-------------------------|--------------------------|
|-------------------------|--------------------------|
 
 
                            H.=H                      Q=55
|-14----------14----------|-14-------------------12-|-^14----*|
|-------15----------15----|-------15----------15----|-^15----*|
|----14----14----14----14-|----14----14-12-15-------|-^14----*|
|-------------------------|-------------------------|-^12----*|
|-------------------------|-------------------------|--------*|
|-------------------------|-------------------------|--------*|
|
| Gtr IV
|-------------------------|-------------------------|--------*|
|-------------------------|-------------------------|-^-3----*|
|-------------------------|-----------------0-----0-|-^-2----*|
|-------------------------|--------0--2--3-----2----|-^-0----*|
|-------------------------|-------------------------|--------*|
|-------------------------|-------------------------|--------*|
 
 
Any question nobbru@libero.it
Comments