Radiohead - My Iron Lung Chords & Tabs

 

My Iron Lung Chords & Tabs

Radiohead Chords & Tabs

Version: 4 Type: Tab 0 ratings
1 star 2 stars 3 stars 4 stars 5 stars
comments

My Iron Lung Tab

My iron lung


Jonny Greenwood : with clean guitar Guitar is set sometimes 1 octave higher.
                                                       
E||--------------------------|------------------------|
B||--------3h-0--------0-----|--------1---------------|
G||-----0-----------0-----0--|-----0--------2r-----0--|
D||--------------3-----------|--1--------1------------|
A||--------------------------|------------------------|
E||--3-----------------------|------------------------|


                                                      
--------------------------|--------------------------|
--------3h-0--------0-----|--------1-----------4-----|
-----0-----------0-----0--|-----2-----2/----5-----5--|
--------------3-----------|--1-----------4-----------|
--------------------------|--------------------------|
--3-----------------------|--------------------------|


                                                                               
--------------------------|------------------------|--------------------------|
--------3h-0--------0-----|--------1--3--3r---1----|--------3h-0--------0-----|
-----0-----------0-----0--|-----0------------------|-----0-----------0-----0--|
--------------3-----------|--1---------------------|--------------3-----------|
--------------------------|------------------------|--------------------------|
--3-----------------------|------------------------|--3-----------------------|


                                                               
------------------------|------------------|------------------|
--------1---------------|------------------|------------------|
-----0--------2r-----0--|------------------|------------------|
--1--------1------------|------------------|------------------|
------------------------|------------------|------------------|
------------------------|------------------|------------------|


                                                               
-------------------|------------------|-----------------------|
-------------------|------------------|-----------------------|
--0----------------|------------------|-----------4-----------|
-------------------|------------------|--------5--------------|
-------------------|------------------|-----5--------------5--|
-------------------|------------------|--3--------------------|


                                                                             
------------------------|------------------------|--------------------------|
------------------------|-----------3------------|--4-----4-----4-----4-----|
-----------5------------|--------0-----0------0--|-----7-----7-----7-----7--|
--------5-------5-------|-----5--------0---------|--------------------------|
-----6---------------5--|------------------------|--------------------------|
--3---------------------|--3---------------------|--------------------------|


                                                                
---------------------|--------------------|--------------------|
-------3------3------|--1------4----------|------3------3------|
-------4------4------|--0------5----------|------4------4------|
-------5------3------|--1------4----------|------5------3------|
---------------------|--0------3----------|--------------------|
--3------------------|---------3----------|--------------------|


                                                                        
--------------------|------------------------|-------------------------|
--1------4----------|------------------------|-------------------------|
--0------5----------|-----------4------------|-----------5-------------|
--1------4----------|--------5-------5-------|--------5-------5--------|
--0------3----------|-----5---------------5--|-----6-------------6--5--|
---------3----------|--3---------------------|--3----------------------|


                                                                                
-------------------------|--------------------------|--------------------------|
----------3--------------|--4-----4-----4-----4-----|--------3h-0--------0-----|
----------------0--------|-----7-----7-----7-----7--|-----0-----------0-----0--|
-------5-----5-----------|--------------------------|--------------3-----------|
-------------------------|--------------------------|--------------------------|
----3--------------3--3--|--------------------------|--3-----------------------|


                                                                             
------------------------|--------------------------|------------------------|
--------1---------------|--------3h-0--------0-----|--------1--3--3r---1----|
-----0--------2r-----0--|-----0-----------0-----0--|-----0------------------|
--1--------1------------|--------------3-----------|--1---------------------|
------------------------|--------------------------|------------------------|
------------------------|--3-----------------------|------------------------|


                                                               
--------------------|--------3------------|-------------------|
--1------0----------|-------------4----3--|-------------------|
--0-----------------|---------------------|----0--------------|
--------------------|---------------------|-------------------|
--------------------|---------------------|-------------------|
--------------------|---------------------|-------------------|


                                                                
--------3------------|-------------------|--------2------------|
-------------4----3--|-------------------|-------------4----3--|
---------------------|----0--------------|---------------------|
---------------------|-------------------|---------------------|
---------------------|-------------------|---------------------|
---------------------|-------------------|---------------------|


                                                                          
-------------------------|--------------------3-----|--------------------|
------3/1/3--3--------3--|--4-----------4-----------|------3------3------|
-------------------------|-----7-----7-----0-----0--|------4------4------|
-------------------------|--------5-----------------|------5------3------|
-------------------------|--------------------------|--------------------|
-------------------------|--------------------------|--------------------|


                                                               
--------------------|--------------------|--------------------|
--1------4----------|------3------3------|--1------4----------|
--0------5----------|------4------4------|--0------5----------|
--1------4----------|------5------3------|--1------4----------|
--0------3----------|--------------------|--0------3----------|
---------3----------|--------------------|---------3----------|


                                                                             
-----------------------|-------------------------|--------------------------|
-----------------------|-------------------------|-----------3-----3--------|
----------4------------|-----------5-------------|--------4-----------------|
-------------5---------|--------5-------5--------|-----5-----------------5--|
-------5------------5--|-----6-------------6--5--|--------------------------|
--3--------------------|--3----------------------|--3-----------3-----3-----|


                                                                              
--------------------------|--------------------------|-----------------------|
--4-----4-----4---4-------|--------3h-0--------0-----|--------1--------------|
-----7-----7----7----7----|-----0-----------0-----0--|-----0-------2b---0----|
--------------------------|--------------3-----------|--1--------------------|
--------------------------|--------------------------|-----------------------|
--------------------------|--3-----------------------|-----------------------
Johny distortion, lead

------------------------|------------------------|--------------------------|
--8--7--6--5------------|-------3~----------3~---|--------------------------|
----------------8----7--|-------3~----------3~---|---------3----3--3--3-----|
------------------------|------------x-x---------|--x-x---------------------|
------------------------|------------x-x---------|--x-x-3-------------------|
------------------------|----3-------x-x-3-------|--x-x------------------0--|


                                                                            
------------------------|------------------------|-------------------------|
------------------------|--8--7--6--5------------|-------------------------|
-------3~---3-3----3~---|----------------8----7--|-------3------------3----|
-------2~---2-2----2~---|------------------------|-----------x-x-x---------|
------------------------|------------------------|-----------x-x-x---------|
----0-----------0-------|------------------------|----3------x-x-x-3-------|


                                                                               
--------------------------|------------------------|--------------------------|
--x-x---------------------|------------------------|--8--7--6--5--------------|
--x-x----3----3--3--3-----|-------3~---3-3----3~---|--------------8-8-8----7--|
--x-x-4-------------------|-------2~---2-2----2~---|--------------------------|
--------------------------|------------------------|--------------------------|
-----------------------0--|----0-----------0-------|--------------------------|





--------------------|--------------------|--------------------|
--------------------|--------------------|--------------------|
--10----------------|--12----------------|--14----------------|
--------------------|--------------------|--------------------|
--------------------|--------------------|--------------------|
--------------------|--------------------|--------------------|


                                                                       
--------------------|--------------------|----------------------------|
--------------------|--------------------|--8--7--6--5----------------|
--12----------------|--10----------------|--------------8-8-8--7-7-7--|
--------------------|--------------------|----------------------------|
--------------------|--------------------|----------------------------|
--------------------|--------------------|----------------------------|


                                       
--------------------------------------|
--------------------------------------|
--------------15----------------------|
--15--16--17--------15--16--17--------|
--------------------------------------|
--------------------------------18----|


                                                                        
------------------------------------------|----------------------------|
------------------------------------------|----------------------------|
--------------15--17--15--17r---15h17-15h-|--16------------------------|
--15--16--17------------------------------|------17----17----17----17--|
------------------------------------------|----------------------------|
------------------------------------------|----------------------------|

[ Tab from: http://www.guitartabs.cc/tabs/r/radiohead/my_iron_lung_tab_ver_4.html ]
                                                                      
------------------------------|--------------------------------------|
------------------------------|--------------------------------------|
-------------------------16---|--------------15----------------------|
----17----17----17-17-17------|--15--16--17--------15--16--17--------|
------------------------------|--------------------------------------|
------------------------------|--------------------------------18----|


                                                                    
--------------------------------------|----------------------------|
------------------17------------------|----------------------------|
--------------17--17r-------15h17-15--|----------------0-----------|
--15--16--17--------------------------|----17----17----17--x-x-17--|
--------------------------------------|----------------------------|
--------------------------------------|----------------------------|


                                                          
--------------------------|------------------------------|
--------------------------|------------------------------|
--------------------------|------------------------------|
----17----17----17----17--|----17-17---17-17---17----17--|
--------------------------|------------------------------|
--------------------------|------------------------------|


                                                      
--------------------------|--------------------------|
--------------------------|--------------------------|
--------------------------|--------------------------|
----17----17----17----17--|----17----17----17----17--|
--------------------------|--------------------------|
--------------------------|--------------------------|


                                                                     
------------------------------|------------------|------------------|
------------------------------|------------------|------------------|
--------------------------17--|------------------|------------------|
----17----17--17--17----------|------------------|------------------|
------------------------------|------------------|------------------|
----------------------15------|------------------|------------------|


                                                           
------------------|------------------|-------------------||
------------------|------------------|-------------------||
------------------|------------------|-------------------||
------------------|------------------|--5/---------------||
------------------|------------------|--5/---------------||
------------------|------------------|--3/---------------||


Ed o brien distortion

----------------------------|----------------------------|
----------------------------|----------------------------|
--3--3--3--3--x-x-2--x-x-2--|---------3---3--------3---3-|
--2--2--2--2--x-x-1--x-x-1--|--x-x-x--3---3-x-x-x--3---3-|
--4--4--4--4--x-x-3--x-x-3--|--x-x-x--5---5-x-x-x--5---5-|
----------------------------|--x-x-x--3---3-x-x-x--3---3-|


                                                        
---------------------------|---------------------------|
---------------------------|---------------------------|
---------3---3-3--3--3-----|-------3---3---------3---3-|
--x-x-x--2---2-2--2--2-----|-------2---2---------2---2-|
--x-x-x--3---3-3--3--3-----|-------1---1-1-1-1-1-1---1-|
--x-x-x-----------------0--|----0--0---0-0-0-0-0-0---0-|


                                                          
----------------------------|----------------------------|
----------------------------|----------------------------|
--3--3--3--3--x-x-2--x-x-2--|---------3---3--------3---3-|
--2--2--2--2--x-x-1--x-x-1--|--x-x-x--3---3-x-x-x--3---3-|
--4--4--4--4--x-x-3--x-x-3--|--x-x-x--5---5-x-x-x--5---5-|
----------------------------|--x-x-x--3---3-x-x-x--3---3-|


                                                        
---------------------------|---------------------------|
---------------------------|---------------------------|
---------3---3-3--3--3-----|-------3---3---------3---3-|
--x-x-x--2---2-2--2--2-----|-------2---2---------2---2-|
--x-x-x--3---3-3--3--3-----|-------1---1-1-1-1-1-1---1-|
--x-x-x-----------------0--|----0--0---0-0-0-0-0-0---0-|


                                                                   
----------------------------|
----------------------------|
--3--3--3--3--x-x-2--x-x-2--
--2--2--2--2--x-x-1--x-x-1--|
--4--4--4--4--x-x-3--x-x-3--|
----------------------------|
Thom

1)
----------------------------|----------------------------|
----------------------------|----------------------------|
--3--3--3--3--x-x-2--x-x-2--|---------3---3--------3---3-|
--2--2--2--2--x-x-1--x-x-1--|--x-x-x--3---3-x-x-x--3---3-|
--4--4--4--4--x-x-3--x-x-3--|--x-x-x--5---5-x-x-x--5---5-|
----------------------------|--x-x-x--3---3-x-x-x--3---3-|


                                                        
---------------------------|---------------------------|
---------------------------|---------------------------|
---------3---3-3--3--3-----|-------3---3---------3---3-|
--x-x-x--2---2-2--2--2-----|-------2---2---------2---2-|
--x-x-x--3---3-3--3--3-----|-------1---1-1-1-1-1-1---1-|
--x-x-x-----------------0--|----0--0---0-0-0-0-0-0---0-|


                                                          
----------------------------|----------------------------|
----------------------------|----------------------------|
--3--3--3--3--x-x-2--x-x-2--|---------3---3--------3---3-|
--2--2--2--2--x-x-1--x-x-1--|--x-x-x--3---3-x-x-x--3---3-|
--4--4--4--4--x-x-3--x-x-3--|--x-x-x--5---5-x-x-x--5---5-|
----------------------------|--x-x-x--3---3-x-x-x--3---3-|


                                                        
---------------------------|---------------------------|
---------------------------|---------------------------|
---------3---3-3--3--3-----|-------3---3---------3---3-|
--x-x-x--2---2-2--2--2-----|-------2---2---------2---2-|
--x-x-x--3---3-3--3--3-----|-------1---1-1-1-1-1-1---1-|
--x-x-x-----------------0--|----0--0---0-0-0-0-0-0---0-|


                                                                   
----------------------------|------------------|------------------|
----------------------------|------------------|------------------|
--3--3--3--3--x-x-2--x-x-2--|------------------|------------------|
--2--2--2--2--x-x-1--x-x-1--|------------------|------------------|
--4--4--4--4--x-x-3--x-x-3--|------------------|------------------|
----------------------------|------------------|------------------|

2)
----------------------------|------------------------|
----------------------------|--6----6---6-6----6---6-|
--3--3--3--3--x-x-2--x-x-2--|--7----7---7-7----7---7-|
--2--2--2--2--x-x-1--x-x-1--|--8----8---8-8----8---8-|
--4--4--4--4--x-x-3--x-x-3--|--8----8---8-8----8---8-|
----------------------------|--6----6---6-6----6---6-|


                                                                  
------------------------------|----------------------------------|
--8-----8----8--8-----8----8--|--9-----9----9--9---9---9---9--9--|
--9-----9----9--9-----9----9--|--10----10---10-10--10--10--10-10-|
--10----10---10-10----10---10-|--11----11---11-11--11--11--11-11-|
--10----10---10-10----10---10-|--11----11---11-11--11--11--11-11-|
--8-----8----8--8-----8----8--|--9-----9----9--9---9---9---9--9--|


                                                              
------------------------------------|------------------------|
--8-----8----8--8--8--8---8---8--8--|--6----6---6-6----6---6-|
--9-----9----9--9--9--9---9---9--9--|--7----7---7-7----7---7-|
--10----10---10-10-10-10--10--10-10-|--8----8---8-8----8---8-|
--10----10---10-10-10-10--10--10-10-|--8----8---8-8----8---8-|
--8-----8----8--8--8--8---8---8--8--|--6----6---6-6----6---6-|


                                                                  
------------------------------|----------------------------------|
--8-----8----8--8-----8----8--|--9-----9----9--9---9---9---9--9--|
--9-----9----9--9-----9----9--|--10----10---10-10--10--10--10-10-|
--10----10---10-10----10---10-|--11----11---11-11--11--11--11-11-|
--10----10---10-10----10---10-|--11----11---11-11--11--11--11-11-|
--8-----8----8--8-----8----8--|--9-----9----9--9---9---9---9--9--|


                                                          
----------------------------|----------------------------|
----------------------------|----------------------------|
--3--3--3--3--x-x-2--x-x-2--|---------3---3--------3---3-|
--2--2--2--2--x-x-1--x-x-1--|--x-x-x--3---3-x-x-x--3---3-|
--4--4--4--4--x-x-3--x-x-3--|--x-x-x--5---5-x-x-x--5---5-|
----------------------------|--x-x-x--3---3-x-x-x--3---3-|


                                                        
---------------------------|---------------------------|
---------------------------|---------------------------|
---------3---3-3--3--3-----|-------3---3---------3---3-|
--x-x-x--2---2-2--2--2-----|-------2---2---------2---2-|
--x-x-x--3---3-3--3--3-----|-------1---1-1-1-1-1-1---1-|
--x-x-x-----------------0--|----0--0---0-0-0-0-0-0---0-|


                                                          
----------------------------|----------------------------|
----------------------------|----------------------------|
--3--3--3--3--x-x-2--x-x-2--|---------3---3--------3---3-|
--2--2--2--2--x-x-1--x-x-1--|--x-x-x--3---3-x-x-x--3---3-|
--4--4--4--4--x-x-3--x-x-3--|--x-x-x--5---5-x-x-x--5---5-|
----------------------------|--x-x-x--3---3-x-x-x--3---3-|


                                                        
---------------------------|---------------------------|
---------------------------|---------------------------|
---------3---3-3--3--3-----|-------3---3---------3---3-|
--x-x-x--2---2-2--2--2-----|-------2---2---------2---2-|
--x-x-x--3---3-3--3--3-----|-------1---1-1-1-1-1-1---1-|
--x-x-x-----------------0--|----0--0---0-0-0-0-0-0---0-|


                                                          
----------------------------|----------------------------|
----------------------------|----------------------------|
--3--3--3--3--x-x-2--x-x-2--|---------3---3--------3---3-|
--2--2--2--2--x-x-1--x-x-1--|--x-x-x--3---3-x-x-x--3---3-|
--4--4--4--4--x-x-3--x-x-3--|--x-x-x--5---5-x-x-x--5---5-|
----------------------------|--x-x-x--3---3-x-x-x--3---3-|


                                                        
---------------------------|---------------------------|
---------------------------|---------------------------|
---------3---3-3--3--3-----|-------3---3---------3---3-|
--x-x-x--2---2-2--2--2-----|-------2---2---------2---2-|
--x-x-x--3---3-3--3--3-----|-------1---1-1-1-1-1-1---1-|
--x-x-x-----------------0--|----0--0---0-0-0-0-0-0---0-|


                                                          
----------------------------|----------------------------|
----------------------------|----------------------------|
--3--3--3--3--x-x-2--x-x-2--|---------3---3--------3---3-|
--2--2--2--2--x-x-1--x-x-1--|--x-x-x--3---3-x-x-x--3---3-|
--4--4--4--4--x-x-3--x-x-3--|--x-x-x--5---5-x-x-x--5---5-|
----------------------------|--x-x-x--3---3-x-x-x--3---3-|


                                                        
---------------------------|---------------------------|
---------------------------|---------------------------|
---------3---3-3--3--3-----|-------3---3---------3---3-|
--x-x-x--2---2-2--2--2-----|-------2---2---------2---2-|
--x-x-x--3---3-3--3--3-----|-------1---1-1-1-1-1-1---1-|
--x-x-x-----------------0--|----0--0---0-0-0-0-0-0---0-|


                                                  
----------------------------|-------------------||
----------------------------|-------------------||
--3--3--3--3--x-x-2--x-x-2--|-------------------||
--2--2--2--2--x-x-1--x-x-1--|--5/---------------||
--4--4--4--4--x-x-3--x-x-3--|--5/---------------||
----------------------------|--3/---------------||
Comments