Radiohead - Morning Bell Chords & Tabs

 

Morning Bell Chords & Tabs

Radiohead Chords & Tabs

Version: 1 Type: Bass Tab 0 ratings
1 star 2 stars 3 stars 4 stars 5 stars
comments

Morning Bell Bass Tab

Song: Morning Bell
Band: Radiohead 
Album: Kid A
Tabbed by: Jason Lapointe (sellycell@hotmail.com)

Standard Tuning
Main (2 measurements repeated a lot)
G------------------------|   This can   G-----------------------|
D------------------------|   be done    D-----------------------|
A-------------4----------|   as well ->	A-----------------------|
E---5--5-5------5--5-5---|              E---5--5-5--/--9--9-9---|


Chorus (release me...)
G-----------------------|
D--------7----4---------|
A-----5----------7--5---|
E--3--------------------|
[ Tab from: http://www.guitartabs.cc/tabs/r/radiohead/morning_bell_btab.html ]
Bridge (cut the kids in half...)
G-------------------------------------------------------------|
D-------------------------------------------------------------|
A-------------------------------------------------------------|
E---0---4----0---4----0---4--/--10--10--10-10--\--5--5--5-5---|

Then after that it goes back into the main until the end. Here there
are many little variations, but all center around the A note. When the
song starts going crazy near the end, I like to do this:

G----------------------------------|
D--7--7--7-7--/--11--11--11-11--\--|
A--0--0--0-0--/---0---0---0--0--\--|
E----------------------------------|

Basically, just do whatever you feel like, I'm just giving a shell
to work with. Listen to the recording to get the timing down, it's
not that hard, and the song is really cool. And remember to let your
notes carry for a nice sound. If anyone finds a mistake, please send 
corrections to the archive.

Comments