Radiohead - Maquiladora Chords & Tabs

 

Maquiladora Chords & Tabs

Radiohead Chords & Tabs

Version: 1 Type: Bass Tab 0 ratings
1 star 2 stars 3 stars 4 stars 5 stars
comments

Maquiladora Bass Tab

Artist: Radiohead
Song title: Maquiladora
Tabbed by: Guillaume Tixhon
Corrections by: Carl Clancy (carlclancy@hotmail.com)
Tuning: EADG

Notes:
Nice job Guillaume, but Colin plays the chorus on the A and
D strings, not the E. And its an F sharp, not a G in the run down
fill. -Carl.


G:------|-----|-----------------------------------------------|
D:-rest-|-----|-----------------------------------------------|
A:------|-----|-----------------------------------------------|
E:------|-12\-|-0--0-4-5--4-0--0-0-4-5--4--0--0-4-5--4-0(0)---|


   verse                  x4   fill1                    x2
G:---------------------------|-----------------------------|
D:---------------------------|-----------------------------|
A:---------------------------|-----------------------------|
E:-0--0-4-5--4-0--0-0-4-5--4-|-7--7-7-5--5-5-4--4-4-2--2-2-|


   verse                  x2   chorus                             x3
G:---------------------------|---------------------------------------|
D:---------------------------|--------------------2--2-2-2-2...2-----|
A:---------------------------|-4--4-4-4-4...4--2------------------2--|
E:-0--0-4-5--4-0--0-0-4-5--4-|---------------------------------------|


[ Tab from: http://www.guitartabs.cc/tabs/r/radiohead/maquiladora_btab.html ]
G:---------|------------|-----------------------------------------------|-----|
D:---------|------------|-----------------------------------------------|-----|
A:-4-4-4-4-|-3/--5/--10-|-----------------------------------------------|-----|
E:---------|------------|-0--0-4-5--4-0--0-0-4-5--4--0--0-4-5--4-0(0)---|-12\-|



G:----------|----------|----------|-----------|---------|------------|
D:-verse-x4-|-fill1-x2-|-verse-x2-|-chorus-x3-|---------|------------|
A:----------|----------|----------|-----------|-4-4-4-4-|-3/--5/--10-|
E:----------|----------|----------|-----------|---------|------------|



G:------------------------------------------------|-------------------------|--------------------------|
D:------------------------------------------------|-------------------------|--------------------------|
A:------------------------------------------------|-------------------------|--------------------------|
E:-0--0-4-5--4-0--0-0-4-5--4--0--0-4-5--4-0(0)/---|-9-9-9-9-----8-8-8-8-----|-9-9-9-9-----8-8-8-8----8-|



G:------------------------------------|------------|-----------------------------------------------|-----|
D:------------------------------------|------------|-----------------------------------------------|-----|
A:------------------------------------|-3/--5/--10-|-----------------------------------------------|-----|
E:-9-9-9-9----9--8-8-8-8----8-9-9-9-9-|------------|-0--0-4-5--4-0--0-0-4-5--4--0--0-4-5--4-0(0)---|-12\-|



G:-----------------------------------------------|
D:-----------------------------------------------|
A:-----------------------------------------------|
E:-0--0-4-5--4-0--0-0-4-5--4--0--0-4-5--4-0(0)---|

Comments