Radiohead - Lucky Chords & Tabs

 

Lucky Chords & Tabs

Radiohead Chords & Tabs

Version: 2 Type: Bass Tab 0 ratings
1 star 2 stars 3 stars 4 stars 5 stars
comments

Lucky Bass Tab

Artist: RADIOHEAD
Album: Ok Computer
Song: Lucky
Tunning: EADG
Tabbed by Guillaume Tixhon

   
   FIG.1                                                     FILL.1
G:---------------------------------------------------------|------------------|
D:---------------------------------------------------------|--------------7-9-|
A:-7--7-----------------------5-7--7-77-7------------------|-7--7--77-7--7-9--|
E:------5--5\3--3/7--7--7-7-7-------------7-8--8\3--3/7--7-|------------------|

   FILL.2                                                         FIG.2
G:------------------------|-----------|------------|------------|----------------------------|
D:-------------10-7-------|-----------|------------|------------|----------------------------|
A:-7--7--77-7------10(10)-|-FIG.1(x1)-|-Fill.1(x1)-|-7--7--77-7-|---------------5-7--7--77-7-|
E:------------------------|-----------|------------|------------|-0-5-5-5H7P5-5--------------|
[ Tab from: http://www.guitartabs.cc/tabs/r/radiohead/lucky_btab_ver_2.html ]
                FIG.3
G:-----------|------------------------------------|
D:-----------|------------------------------------|
A:-Fig.2(x1)-|--------------5-7--7--77-7-7/10--14-|
E:-----------|0-5-5-5H7P5-5-----------------------|

                                 (x2)
G:-------------------------------------|-----------|-----------|-----------|-----------|
D:------------10-7---------------------|-----------|-----------|-----------|-----------|
A:-7--7--77-7-----10---7--7--77-7------|-Fig.1(x1)-|-Fill1(x1)-|-Fill2(x1)-|-Fig.1(x1)-|
E:--------------------------------1111-|-----------|-----------|-----------|-----------|


G:-----------|------------|-----------|-----------|
D:-----------|------------|-----------|-----------|
A:-Fill1(x1)-|-7--7--77-7-|-Fig.2(x2)-|-Fig.3(x1)-|
E:-----------|------------|-----------|-----------|

                (x4)
G:-------------------|------------|-----------|-------|
D:-------------------|------------|-----------|-------|
A:-7--5--3-----------|-7--7--77-7-|-Fig.2(x2)-|-Fig.3-|
E:----------2--22--0-|------------|-----------|-------|


Comments