Radiohead - Knives Out Chords & Tabs

 

Knives Out Chords & Tabs

Radiohead Chords & Tabs

Version: 1 Type: Tab 0 ratings
1 star 2 stars 3 stars 4 stars 5 stars
comments

Knives Out Tab

e---------------------------------------------------------------------
B-----88------88-------44------11---4-----41---3----33------33--------
G-888----8-777----7-555----5-00----0---050----0---33----3222----2-----
D---------------------------------------------------------------------
A---------------------------------------------------------------------
E---------------------------------------------------------------------

e---------------------------------------------------------------------
B----532-------------532-----------88------88------44-----11---4----11
G-000----0---0-----0-----0---0-888----8777----7555----500----0---00---
D----------2-----2---------2------------------------------------------
A---------------------------------------------------------------------
E-------------0-------------------------------------------------------
[ Tab from: http://www.guitartabs.cc/tabs/r/radiohead/knives_out_tab.html ]
e---------------------------------------------------------------------
B---3----33-------33-------22----------------------------88-------88--
G-0---33----3-222----2-000----0----00-----------0----888----8-777-----
D-------------------------------22----2----22-------------------------
A---------------------------------------22----2-----------------------
E-------------------------------------------------23------------------

e---------------------3-----------------------------------------------
B--------44------41-----4143----33-------33-------532-----------------
G-7-555-----5-33----0--------33----3-222----2-000---------------------
D---------------------------------------------------------------------
A---------------------------------------------------------------------
E---------------------------------------------------------------------

This is all i've worked out so far, but the rest is pretty much just 
variations on the same thing.
Comments