Radiohead - Just Chords & Tabs

 

Just Chords & Tabs

Radiohead Chords & Tabs

Version: 3 Type: Tab 0 ratings
1 star 2 stars 3 stars 4 stars 5 stars
comments

Just Tab

   
#-------------------------PLEASE NOTE---------------------------------#
#     This file is the author's own work and represents their         #
# interpretation of the song. You may only use this file for private  #
#                 study, scholarship, or research.                    #
#---------------------------------------------------------------------#
JUST
As recorded by Radiohead
(Released on The Bends in 1995)
Words by Thomas Yorke
Music by Radiohead
Transcribed by Scott Franks
sjayfranks@hotmail.com
Gtr I (E A D G B E) - Acoustic "Thom Yorke"

I tried to organize this thing so it would print perfectly with no clipping,
but since ultimate-guitar requires you to copy and paste the entire song, with
no indents or templates, it is impossible to make it so that the lines match up.
Otherwise, for the well-eared, and devoted, you'll find this tab to be near
close the original.  I admit, my tabbing my have been influenced by the authentic
sheet, but it's been years (about nine).  Over time, this has been the version I
have adapted for live gigs.  However, this piece will only be decent if you
embelish and play it with a fellow guitarist, for the solo parts.  Enjoy.

  Q=88
 4/4
  Gtr I
"INTRO"
  Q  E S S S S E E S S   E E E S S S  S  E  E E
|----------------------|--------------------------|_______
|-5--5-x-x-x-8-8-8-7-7-|-7-7-7-7-7-x-10-10-10-x---|REPEAT |
|-5--5-x-x-x-8-8-8-7-7-|-7-7-7-7-7-x-10-10-10-x---|THIS   |
|-5--5-x-x-x-8-8-8-7-7-|-7-7-7-7-7-x-10-10-10-x---|THREE  |
|-3--3-x-x-x-6-6-6-5-5-|-5-5-5-5-5-x--8--8--8-x---|TIMES  |
|----------------------|--------------------------|_______|

"VERSE 1"
  H     E  E E S S   Q  E S S  E  E E E
|-5----(5)---5-----|--------------------| _______
|-5----(5)---5-4-4-|-4--4-4-4-(4)-------|        |
|-5----(5)---5-5-5-|-5--5-5-5-(5)---5---|        |
|-7----(7)-7-7-6-6-|-6--6-6-6-(6)-6-6---|        |
|-7----(7)-7-7-6-6-|-6--6-6-6-(6)-6-6---|        |
|-5----(5)-5-5-4-4-|-4--4-4-4-(4)-4-4---|        |
 Can't get the stink off                         |
              He's been hanging round for days   |
  E S E  E   Q    Q    Q  E. S S S E E S S       |
|--------------------|----5--5---5-5-5-----|     |
|---8---10-(10)--10--|----5--5---5-5-5-----|     |
|---8---10-(10)--10--|----5--5---5-5-5-5-5-|     |
|-8-8---10-(10)--10--|-7--7--7---7-7-7-6-6-|-----|
|-6------8--(8)---8--|-7--7--7---7-7-7-6-6-|     |
|--------------------|-5--5--5---5-5-5-4-4-|     |
                      Comes like a comet         |
                                                 |
  E E E S S  S  E Q    E. S E E  Q   Q           |
|--------------------|---------------6--|        |
|--------------------|----8---6-(6)--6--|        |
|-5-5-5-5-5-(5)-5-5--|----8---7-(7)--7--|        |
|-6-6-6-6-6-(6)-6-6--|-8--8---8-(8)--8--|--------|
|-6-6-6-6-6-(6)-6-6--|-6------8-(8)--8--|        |
|-4-4-4-4-4-(4)-4-4--|--------6-(6)--6--|        |
Suckered you but not your friends                |
                                                 |
  Q  E. S E E Q    Q  E. S E E Q                 |
|-5--5--5-----5--|-4--4--4-----4--|              |
|-5--5--5-----5--|-4--4--4-----4--|              |
|-5--5--5-----5--|-5--5--5-----5--|--------------|
|-7--7----7-7-7--|-6--6----6-6-6--|              |
|-7--7----7-7-7--|-6--6----6-6-6--|              |
|-5--5----5-5-5--|-4--4----4-4-4--|              |
One day he'll get to you,                        |
                  Teach you how to be            |
  E E Q  E E Q    Q  Q  H                        |
|-----3------2--|-1----------|                   |
|-----3------2--|-1----------|                   |
|-4-4-4--3-3-3--|-2----------|                   |
|-5-5-5--4-4-4--|-3----------|                   |
|-5-5-5--4-4-4--|-3----------|                   |
|-3-3-3--2-2-2--|-1----------|___________________|
a holy          cow
[ Tab from: http://www.guitartabs.cc/tabs/r/radiohead/just_tab_ver_3.html ]
"Chorus" + "Intro" 
   Q   E  S Q  Q    E E Q  Q  E S S ________________________
|-----------------|-----------------|_______                |
|-----------------|-----------------|REPEAT |               |
|--9---9--9-3--3--|-2-2-2--2--2-2-2-|THIS   |               |
|-10--10-10-4--4--|-3-3-3--3--3-3-3-|TWICE  |               |
|-10--10-10-4--4--|-3-3-3--3--3-3-3-|       |               |
|--8---8--8-2--2--|-1-1-1--1--1-1-1-|_______|               |
You do it to yourself                                       |
              You do                                        |
                  And that's what really hurts              |
Is you do it to yourself                                    |
             Just you                                       |
                  You and no-one else                       |
                                                            |
  Q  E S S S S E E S S   E E E S S S  S  E  E E             |
|----------------------|--------------------------|_______  |
|-5--5-x-x-x-8-8-8-7-7-|-7-7-7-7-7-x-10-10-10-x---|REPEAT | |
|-5--5-x-x-x-8-8-8-7-7-|-7-7-7-7-7-x-10-10-10-x---|THIS   | |
|-5--5-x-x-x-8-8-8-7-7-|-7-7-7-7-7-x-10-10-10-x---|TWICE  | |
|-3--3-x-x-x-6-6-6-5-5-|-5-5-5-5-5-x--8--8--8-x---|       | |
|----------------------|--------------------------|       | |
 You do it to yourself ___________________________________| |
____________________________________________________________|
THEN FOLLOW THE LEADER WITH:
"VERSE 2"
  H     E  E E S S   Q  E S S  E  E E E
|-5----(5)---5-----|--------------------| _______
|-5----(5)---5-4-4-|-4--4-4-4-(4)-------|        |
|-5----(5)---5-5-5-|-5--5-5-5-(5)---5---|        |
|-7----(7)-7-7-6-6-|-6--6-6-6-(6)-6-6---|        |
|-7----(7)-7-7-6-6-|-6--6-6-6-(6)-6-6---|        |
|-5----(5)-5-5-4-4-|-4--4-4-4-(4)-4-4---|        |
 Don't get my sympathy                           |
                    Hanging out the 15th floor   |
                                                 |
  E S E  E   Q    Q    Q  E. S S S E E S S       |
|--------------------|----5--5---5-5-5-----|     |
|---8---10-(10)--10--|----5--5---5-5-5-----|     |
|---8---10-(10)--10--|----5--5---5-5-5-5-5-|     |
|-8-8---10-(10)--10--|-7--7--7---7-7-7-6-6-|-----|
|-6------8--(8)---8--|-7--7--7---7-7-7-6-6-|     |
|--------------------|-5--5--5---5-5-5-4-4-|     |
                   You've changed the            |
                           locks 3 times         |
                                                 |
  E E E S S  S  E Q    E. S E E  Q   Q           |
|--------------------|---------------6--|        |
|--------------------|----8---6-(6)--6--|        |
|-5-5-5-5-5-(5)-5-5--|----8---7-(7)--7--|        |
|-6-6-6-6-6-(6)-6-6--|-8--8---8-(8)--8--|--------|
|-6-6-6-6-6-(6)-6-6--|-6------8-(8)--8--|        |
|-4-4-4-4-4-(4)-4-4--|--------6-(6)--6--|        |
He still comes reeling                           |
            through the door                     |
                                                 |
  Q  E. S E E Q    Q  E. S E E Q                 |
|-5--5--5-----5--|-4--4--4-----4--|              |
|-5--5--5-----5--|-4--4--4-----4--|              |
|-5--5--5-----5--|-5--5--5-----5--|--------------|
|-7--7----7-7-7--|-6--6----6-6-6--|              |
|-7--7----7-7-7--|-6--6----6-6-6--|              |
|-5--5----5-5-5--|-4--4----4-4-4--|              |
One day I'll  get to you,                        |
                  Teach you how to get           |    
  E E Q  E E Q    Q  Q  H                        |
|-----3------2--|-1----------|                   |
|-----3------2--|-1----------|                   |
|-4-4-4--3-3-3--|-2----------|                   |
|-5-5-5--4-4-4--|-3----------|                   |
|-5-5-5--4-4-4--|-3----------|                   |
|-3-3-3--2-2-2--|-1----------|___________________|
to   purest      hell

"Chorus" + "Intro" 
   Q   E  S Q  Q    E E Q  Q  E S S ________________________
|-----------------|-----------------|_______                |
|-----------------|-----------------|REPEAT |               |
|--9---9--9-3--3--|-2-2-2--2--2-2-2-|THIS   |               |
|-10--10-10-4--4--|-3-3-3--3--3-3-3-|TWICE  |               |
|-10--10-10-4--4--|-3-3-3--3--3-3-3-|       |               |
|--8---8--8-2--2--|-1-1-1--1--1-1-1-|_______|               |
You do it to yourself                                       |
              You do                                        |
                  And that's what really hurts              |
Is you do it to yourself                                    |
             Just you                                       |
                  You and no-one else                       |
  Q  E S S S S E E S S   E E E S S S  S  E  E E             |
|----------------------|--------------------------|_______  |
|-5--5-x-x-x-8-8-8-7-7-|-7-7-7-7-7-x-10-10-10-x---|REPEAT | |
|-5--5-x-x-x-8-8-8-7-7-|-7-7-7-7-7-x-10-10-10-x---|THIS   | |
|-5--5-x-x-x-8-8-8-7-7-|-7-7-7-7-7-x-10-10-10-x---|TWICE  | |
|-3--3-x-x-x-6-6-6-5-5-|-5-5-5-5-5-x--8--8--8-x---|       | |
|----------------------|--------------------------|       | |
 You do it to yourself ___________________________________| |
____________________________________________________________|

AFTERWARDS 
Continue with:
_________________________________________________________
"BRIDGE"                                                 |
  E E E S S S S E E S S   E E E S S S S E E S S  ______  |
|-----------------------|-----------------------|REPEAT| |
|-----------------------|-----------------------|THIS  | |
|-9-9-9-9-9-7-7-7-7-7-7-|-6-6-6-6-6-6-6-6-6-6-6-|BRIDGE| |
|-9-9-9-9-9-7-7-7-7-7-7-|-6-6-6-6-6-6-6-6-6-6-6-|TWICE | |
|-7-7-7-7-7-5-5-5-5-5-5-|-4-4-4-4-4-4-4-4-4-4-4-|      | |
|-0-0-0-0-0-------------|-----------------------|______| |
                                                         |
AND THEN FIVE BARS OF SILENCE FOR SOLOS (NOT ACOUSTIC)   |
  W          W          W          W          W          |
|----------|----------|----------|----------|------|     |
|----------|----------|----------|----------|------|     |
|----------|----------|----------|----------|------|     |
|----------|----------|----------|----------|------|     |
|----------|----------|----------|----------|------|     |
|----------|----------|----------|----------|------|     |
                                                         |
  E E E E E E E E   E E Q  Q  S E S                      |
|-----------------|-----------------|                    |
|-----------------|-----------------|                    |
|-4-4-4-4-3-3-3-3-|-2---------------|                    |
|-5-5-5-5-4-4-4-4-|-3---------------|                    |
|-5-5-5-5-4-4-4-4-|-3---------------|                    |
|-3-3-3-3-2-2-2-2-|-1---------------|                    |
_________________________________________________________|

"Chorus"
   E  Q  E  Q   Q    E E Q  Q  E S S  ______
|------------------|-----------------|REPEAT|
|------------------|-----------------|THIS  |
|--9--9--3-(3)--3--|-2-2-2--2--2-2-2-|TWICE |
|-10-10--4-(4)--4--|-3-3-3--3--3-3-3-|      |
|-10-10--4-(4)--4--|-3-3-3--3--3-3-3-|      |
|--8--8--2-(2)--2--|-1-1-1--1--1-1-1-|______|

THEN:
"Chorus" + "Intro" 
   Q   E  S Q  Q    E E Q  Q  E S S ________________________
|-----------------|-----------------|_______                |
|-----------------|-----------------|REPEAT |               |
|--9---9--9-3--3--|-2-2-2--2--2-2-2-|THIS   |               |
|-10--10-10-4--4--|-3-3-3--3--3-3-3-|TWICE  |               |
|-10--10-10-4--4--|-3-3-3--3--3-3-3-|       |               |
|--8---8--8-2--2--|-1-1-1--1--1-1-1-|_______|               |
You do it to yourself                                       |
              You do                                        |
                  And that's what really hurts              |
Is you do it to yourself                                    |
             Just you                                       |
                  You and no-one else                       |
                                                            |
  Q  E S S S S E E S S   E E E S S S  S  E  E E             |
|----------------------|--------------------------|_______  |
|-5--5-x-x-x-8-8-8-7-7-|-7-7-7-7-7-x-10-10-10-x---|REPEAT | |
|-5--5-x-x-x-8-8-8-7-7-|-7-7-7-7-7-x-10-10-10-x---|THIS   | |
|-5--5-x-x-x-8-8-8-7-7-|-7-7-7-7-7-x-10-10-10-x---|TWICE  | |
|-3--3-x-x-x-6-6-6-5-5-|-5-5-5-5-5-x--8--8--8-x---|       | |
|----------------------|--------------------------|       | |
 You do it to yourself ___________________________________| |
____________________________________________________________|

Then:
  "Intro"
  Q  E S S S S E E S S   E E E S S S  S  E  E E             
|----------------------|--------------------------|_______  
|-5--5-x-x-x-8-8-8-7-7-|-7-7-7-7-7-x-10-10-10-x---|REPEAT | 
|-5--5-x-x-x-8-8-8-7-7-|-7-7-7-7-7-x-10-10-10-x---|THIS   | 
|-5--5-x-x-x-8-8-8-7-7-|-7-7-7-7-7-x-10-10-10-x---|TWICE  | 
|-3--3-x-x-x-6-6-6-5-5-|-5-5-5-5-5-x--8--8--8-x---|       | 
|----------------------|--------------------------|_______|
___________________________________________________________
"OUTRO"                                                    |
  E E E S S S S S S S S S S   E E E S S S S S S S S S S    |
|---------------------------|----------------------------| |
|---------------------------|----------------------------| |
|-5-5-5-5-3---3-3-3-3-3-3-3-|-2-2-2-2-8---8-8-8-8-8-8-8--| |
|-5-5-5-5-3---3-3-3-3-3-3-3-|-2-2-2-2-8---8-8-8-8-8-8-8--| |
|-3-3-3-3-1---1-1-1-1-1-1-1-|-0-0-0-0-6---6-6-6-6-6-6-6--| |
|---------------------------|----------------------------| |
  || R E P E A T    T H I S    S E V E N     T I M E S ||  |
   -----------------------------------------------------   |
                                                           |
                                                           |
  E E E S S S S S S S S S S   Q  Q  H                      |
|---------------------------|------------|                 |
|---------------------------|------------|F                |
|-5-5-5-5-3---3-3-3-3-3-3-3-|-2----------|I                |
|-5-5-5-5-3---3-3-3-3-3-3-3-|-2----------|N                |
|-3-3-3-3-1---1-1-1-1-1-1-1-|-0----------|E                |
|---------------------------|------------|                 |
___________________________________________________________|


Duration Legend
---------------
W - whole; H - half; Q - quarter; E - 8th; S - 16th; T - 32nd; X - 64th; a - acciaccatura
+ - note tied to previous; . - note dotted; .. - note double dotted
Uncapitalized letters represent notes that are staccato (1/2 duration)
Irregular groupings are notated above the duration line Duration letters will always
appear directly above the note/fret number it represents the duration for.  Duration
letters with no fret number below them represent rests.  Multi-bar rests are notated in
the form Wxn, where n is the number of bars to rest for.  Low melody durations appear
below the staff

Tablature Legend
----------------
 h   - hammer-on
 p   - pull-off
 b   - bend
 pb  - pre-bend
 r   - bend release (if no number after the r, then release immediately)
 PM  - palm muting
 =   - hold bend; also acts as connecting device for hammers/pulls
 x   - on rhythm slash represents muted slash
 o   - on rhythm slash represents single note slash

Misc Legend
-----------
 |  - bar
Tempo markers -  = BPM(8/16=s8/s16), where s8 = swing 8ths, s16 = swing 16ths
***********************************************************************
Generated using Power Tab Editor by Brad Larsen - http://powertab.guitarnetwork.org *
***********************************************************************
Comments